Zapata's Blood
la couchon@aol.com

This may sound like the hardest Rage song, but it just uses a lot of effects. 
You'll need a Delay Pedal, a Wah Pedal, a Flanger, and Distortion.

Play Whole song with Delay
Intro/Verse
                           flanger                              flanger
E-----------------------x-22-x-22~~~~~----------------x-22-x-22~~~~~
B----------------------------------------------------------------------------x
-----------
G--x-x-x~~~~~----------------------------x-x-9~~~-------------x----x--------
D--x-x-x~~~~~----------------------------x-x-9~~~-----------x---------x-----
A--x-x-x~~~~~----------------------------x-x-7~~~---------x-------------------
E-----------------------------------------------------------------------------
--------------
     wah                                        wah


Bridge--Play 43 *exactly* times w/wah
E---------
B---------
G---------
D--10---
A---8----
E---------

Outro
                                         cut the delay off
E-----x-<14>-15-18-18-18---|--16-16-15-15-15-16-15--
B-----x-<14>-15-18-18-18---|--15-15-15-16-16-16-16--
G-volume-swell~~~~~~~~-|----play-this-three times-
D------------------------------------|-----------------------------------
A------------------------------------|-----------------------------------
E------------------------------------|-----------------------------------

...back to tabulature