twiggyfm6@webtv.net

standard tuning

intro/verse/outro
As Tom said "Tom: It's just a note feeding back and I'm twirling the
knob around on the whammy pedal"
probably on the 12th or 14th fret on the g string or just the feedback
from the b or g string.

then something like this
------------------------------------------------------
------------------------------------------------------
------------------------------------------------------
------------------------------------------------------
-5--3--5----3--1--3-----2--0--2----------------
------------------------------------------3--1--0--2

chorus (1) repeat this several times after (2)
------------------------------
------------------------------
------------------------------
-----3-----------------------
-5------5--3--5--5--3--5
------------------------------
contuniue (2) repeat this several times after (1)
------------------------------
------------------------------
------------------------------
-----3-------------5--------
-5------5--3--5--- -3--5-
------------------------------

on the 4th time end with
------------------------------------------------------
------------------------------------------------------
------------------------------------------------------
------------------------------------------------------
-5--3--5----3--1--3-----2--0--2----------------
------------------------------------------3--1--0--2

thats the whole song email me for corections or mistakes.

...back to tabulature