Voice of the voiceless by Morello83@aol.com

for the intro Tom said he does sumthing wierd with feedback and i dont know 
what hes doingn but heres the rest of it

(intro after feedback/ chorus)

b----------------------------------------------------------------------
g----------------------------------------------------------------------
d-------------------------------------------------------0-----3---------------
------------0-3---------------5-3-0--
a--5-3-5------3-0-3----------------------------------------------5-3-5--3h5-5-
5---------5-3-5--------------
D-------------------------5-3-5------3 0 
3------------------------------------------------------

...back to tabulature