TOWSHIP REBELLION
Rage Against The Machine/Rage Against The Machine
played w/digitech whammy pedal
Drop D tuning

INTRO
                    8va----------------------|
---------------------------------------------
--3----3----3----3----3-----------------------
--2----2----2----2----2----x----x----x----x---
--0----0----0----0----0-----------------------
--0----0----0----0----0-----------------------
--0----0----0----0----0-----------------------
                   pick behind nut-----------|

VERSE
gtr.1 w/FILL 1- 15 times



RYTH Fig. 1
play 2 times through
-------------------------------------------------------
-------------------------------------------------------
-------------------------------------------------------
-------------------------------------------------------
--3---5-------------3---5-------------3----5-----------
----------0----0------------0---0-----3----5-----------

-------------------------------------------------------
-------------------------------------------------------
-------------------------------------------------------
-------------------------------------------------------
--3---5-------------3---5-----------5--2---------------
----------0----0------------0---0------2---------------  


-------------------------------------------------------
-------------------------------------------------------
-------------------------------------------------------
-------------------------------------------------------
--3---5-------------3---5-------------3----5-----------
----------0----0------------0---0-----3----5-----------


-------------------------------------------------------
---------------------------------1/2-------------------
---------------------------------/---------------------
--------------------------------5-----5---3------------
--3---5-------------3---5----------------------5-------
----------0----0------------0----------------------0---

VERSE
gtr.1 w/fill 1- 15 times

during the verse when Zack says "cause what does it....",
play: gtr.2 w/fill 3- 8 times


CHORUS
gtr.1 w/ryth fig. 1
play 4 times
during the last measure the fourth time, play this:

gutiar 4
------------------------------------------------------
------------------------------------------------------
--------x--x--x--x--x--x--x--x--x--x---0----0---------
----x---x--x--x--x--x--x--x--x--x--x------------------
---/-\------------------------------------------------
------------------------------------------------------
w/harmonizer set to produce notes a perfect fourth lower

GUITAR SOLO
         w/bar  /\/\/\/\/\/\/                     w/bar    /\/\/\/\/\/
------------------------------------------------------------------------------
------------------------------------------------------------------------------
------11---12-14-----------------------10-----------14-14--14---------11^12^14
-/12------------------------11^12^14-------14-12-11---------------------------
------------------------------------------------------------------------------
------------------------------------------------------------------------------
                                                       full
                w/bar   /\/\/\/\/\/                    /
------------10--------------------------------14-15-17/---17------------------
-10^11^14-------14-14---14----------14^15^17------------------------14^15^17--
------------------------------------------------------------------------------
------------------------------------------------------------------------------
------------------------------------------------------------------------------
------------------------------------------------------------------------------
            full
            /                              ___    ______           /\/\/\/
-14--15--17/-------17---15---14---15----14^---^15^------^14----------------14-
--------------------------------------------------------------15--------------
------------------------------------------------------------------16----------
------------------------------------------------------------------------------
------------------------------------------------------------------------------
------------------------------------------------------------------------------

                                 full........     w/bar /\/\/\/\/\/\/
-15---17---15------14------------/-----------\-----------------------10-11----
-------------------------17-(17)/-------------\(17)-15-15---------------------
------------------------------------------------------------------------------
------------------------------------------------------------------------------
------------------------------------------------------------------------------
------------------------------------------------------------------------------


12-11-10------------------------------------------------------------------1012
---------12-11-10----11--10---------------------------------------------10----
------------------12--------12-11-10-12-11-10-11-12-11-10-------------10--\---
----------------------------------------------------------12-11-10^1112----\--
------------------------------------------------------------------------------
------------------------------------------------------------------------------


13-12-10--------------10-12-13-12-10--------------10-12-13-12-10--------10-11-
--------13-12-10-12-13--------------13-12-10-12-13-------------12--12---------
---------------------------------------------------------------------\--------
----------------------------------------------------------------------\-------
------------------------------------------------------------------------------
------------------------------------------------------------------------------


12-11-10-------------------------------------------------------------------12-
--------12-11-10--11-10--------------------------------------------------15---
----------------12-----12-11-10-12-11-10-11-12-11-10-------------10--10-------
----------------------------------------------------12-11-10^11-12-----\------
------------------------------------------------------------------------\-----
------------------------------------------------------------------------------ 
                                                                              
                               8va---------------------------------------
                                                                      full     
15-13-12--------17-15-13-12-----10-------19-22--22---22---22---22-(22)/-\(22)-
--------15-13-12-----------13-13--\--/10--------------------------------------
-----------------------------------\/-----------------------------------------
------------------------------------------------------------------------------
------------------------------------------------------------------------------
------------------------------------------------------------------------------


CHORUS
gtr. 1 w/rhy. fig. 1
omit the last ending this time



BRIDGE
gtr. 2

------------------------------------------------------------------------------
------------------------------------------------------------------------------
------------------------------------------------------------------------------
------------------------------------------------------------------------------
---3^5--5--5--5----------------------------3^5--5--5--5-----------------------
------------------0---0--0-------------------------------0---0--0-------------

play 3 times             Rhy.Fig. 2       |--------------------------------|
------------------------------------------------------------------------------
------------------------------------------------------------------------------
------------------------------------------------------------------------------
------------------------------------------------------------------------------
---3^5--5--5--5----------------------------3^5--5--5--5-----------------3--5--
------------------0---0--0-------------------------------0---0--0-------3--5--

Rhy. Fig 3----------------------------------------|
gtrs. 1&2 play 15 times
p.m.------------------------------------------------------------------------|
------------------------------------------------------------------------------
------------------------------------------------------------------------------
------------------------------------------------------------------------------
------------------------------------------------------------------------------
---3^5--5--5--5---------------------------------------------------------------
-----------------0--0--0--0--0--0--0--0--3--3--5--5---------------------------


Rhy. Fig 2
gtr. 2 4 times


CHORUS
gtr 1 w/rhy. fig. 1     second time through, semi- harm
play 3 times               /            \     \
--------------------------/--------------\-----\------------------------------
--------3----------------3----------------3-----3----------------3------------
------------------------------------------------------------------------------
-------------x-x---------------x-x--------------------x-x---------------------
--3^^5----5--x-x--5--5------5--x-x--3^^5-----5-----5--x-x--3^^5-----5---------
------------------------------------------------------------------------------


----------------------------------
----------------------------------  
----------------------------------
------x--x--x--x--x--x--x--x------
------x--x--x--x--x--x--x--x------
----------------------------------

OUTRO

------------------------------------------------------------------------------
---------3-----------------3-----------------3-----------------3--------------
------------------------------------------------------------------------------
----------------x-x---------------x-x---------------x-x-----------------------
--3^^5-------5--x-x--3^^5------5--x-x--3^^5------5--x-x--3^^5-----5--5--5-----
------------------------------------------------------------------------------


-----------------------------------------------------------------
----------1/2------------------------------3---------3----3------
----------/--------------------------------2---------2----2------
--------5/-----5------3--------------------0---------0----0------
-----5------------------------5------0-----0---------0----0------
-------------------------------------0-----0---------0----0------


--------------------------------------------------------------
                                                              |
RHY. FILL 1 (gtrs. 1&2)                                       |
                                                              |
-------------------------------------------------             |
-------------------------------------------------             |
-------------------------------------------------             |
-------------------------------------------------             |
--3^5--5--5--5----------------------------3---5--             |
-----------------0--0--0--0--0--0--0--0---3---5--             |
                                                              |
                                                              |
RHY. FILL 2 (gtrs. 1&2)                                       |
                                                              |
-------------------------------------------------             |
-------------------------------------------------             |
-------------------------------------------------             |
-------------------------------------------------             |
--3^5--5--5--5-----------------------------------             |
-----------------0----0--0----------3--5---------             |
                                                              | 
--------------------------------------------------------------


--------------------------------------------------------------
                                                              |
FILL 1 (gtr. 1)     Fill 2 (gtr. 2)      FILL 3 (gtr. 2)      |
      8va                8va                                  |
-----------------   ------------------  ----------------      |
-----------------   ------------------  ----------------      |
-------x---------   -----x------------  -------16-------      |
-----------------   ------------------  ----9-/14-------      |
-----------------   ----------/x\-----  ---10/----------      |
-----------------   ----------/x\-----  ----/-----------      |
                                                              |
                                                              |
FILL 4 (gtr.1)                                                |
                                                              |
-----------------                                             |
-----------------                                             |
-----------------                                             |
-----------------                                             |
-----------/x\---                                             |
-----------/x\---                                             |
                                                              |
--------------------------------------------------------------

I hope you can understand this If you have any suggestions....     byrnesb@elmo.nmc.edu

...back to tabulature