Rage Against The Machine - Snoop Bounce - Feat. Snoop Dogg
**********************************************************
 
Tabbed with no success : Felipe Peņa Karvonen
E-mail me at: rebek45@hotmail.com
 
I tried to translate this song, because I couldn't find it
from the net.  But please! Somebody who knows how this song
goes exactly.... e-mail me! 
 

I love the chorus, the rythm how Tom plays it!
Intro is awesome... verse got everything what
rap&rock needs! The only problem is Snoop 8)
 
There are few parts that are difficult to translate
with my acoustic :-) So the effect parts I leave
to other people.. !
 

Drop D tuning.
 
intro: Tom plays it so fast, so with my skills I didn't get it..
 
(ps:listen the intro carefully and find the groove of Toms guitar!)
|--------------------------------------------------------|
|-------5------------------------------------------------|
|--2-4---2-4-2b-0-4b4b-2-0-2-4-0-------------|
|--------------------------------------------0-2--------|
|-----------------------------------------------2--------|
|-----------------------------------------------2--------|
fill: Some effect...:-)
|----------------------------------------------------|
|----------------------------------------------------|
|----------------------------------------------------|
|----------------------------------------------------|
|-5-5--2--0---------------------------------------|
|---------------5-----------------------------------|
chorus: And hey! Find the rythm for yourself.. 
|------------------------------------------------------------|
|------------------------------------------------------------|
|------------------------------------------------------------|
|-2-----0--2--0-----0--2---0--2--0--5--.-->----------|
|-2-----0--2--0-----0--2---0--2--0--5--.-->----------|
|-2-----0--2--0-----0--2---0--2--0--5--.-->----------|
I think that the rythm is a little bit wierd... so be carefull...
|-----------------------------------------------------------|
|-----------------------------------------------------------|
|-----------------------------------------------------------|
|-0--2-----0--2--0-----0--2--0----5-5----------------|
|-0--2-----0--2--0-----0--2--0----5-5----------------|
|-0--2-----0--2--0-----0--2--0----5-5----------------|
fill: Distorsion...
|----------------------------------------------------|
|----------------------------------------------------|
|----------------------------------------------------|
|----------------------------------------------------|
|-5-5--2---0--------------------------------------|
|----------------5----------------------------------|
 
verse: Guitar with wahwah and the bass with distorsion.. i guess.. 
 
! = Tom is playin' with my me! Those are the right notes.. maybe..
But the sound..?! I don't know... 
|----------------------------------------------------|
|----------------------------------------------------|
|----------------!12-0-12!------------------------|
|----------------------------------------------------|
|--------------------------10\----------------------|
|-0-2----5----7------------------------------------|
 

Sorry, here's all what I got for you... 
Atleast ya got the chorus, it's so cool...

Guitar/Bass Tabulature