Title: Settle For Nothing
Artist: Rage Against The Machine
Album: Rage Against The Machine
Tabbed by: Kaos (kaos4rage@icqmail.com)

Tuning: Standard (EADGBe)

Intro:

  *Riff A:
   (Gtr. 1)

e|--------------|--------------|--------------|--------------|
B|--------------|--------------|--------------|--------------|
G|--7-----7-----|--7-----7-----|--7-----7-----|--7-----7-----|
D|-----0-----9--|-----0-----8--|-----0-----7--|-----0-----8--|
A|--------------|--------------|--------------|--------------|
E|--------------|--------------|--------------|--------------|

  *Bass arranged for guitar (sounds                 End Riff A
   one actave lower than written).

Fill 1:
(Gtrs. 2 & 3)

       *          grad. release
       full--------------------------|
e|-----12b------|---------------|--12---------|
B|--------------|---------------|-------------|
G|-----11b1/2---|---------------|--11---------|
D|--------------|---------------|-------------|
A|--------------|---------------|-------------|
E|--------------|---------------|-------------|

       *Vol. knob swell.

Rhy. Fill 1:
(Gtr. 4)

e|--------------------------|
B|--------------------------|
G|--------------------------|
D|--------------------------|
A|--------------------------|
E|-----------------------0--|

              End Rhy. Fill 1

Chorus:

	Rhy. Fig. 1:
	(Gtr. 4)

                 ~~~~~~~~~~~                   ~~~~~~~~~~~                   ~~~~~~~~~~~     
e|------------------------------|-----------------------------|-----------------------------|
B|.-----------------------------|-----------------------------|-----------------------------|
G|------------------------------|-----------------------------|-----------------------------|
D|---2--------------------------|--2--------------------------|--2--------------------------|
A|.--0--------------------------|--0--------------------------|--0--------------------------|
E|------0--1--3--2-----------0--|-----0--1--3--2-----------0--|-----0--1--3--2-----------0--|

                ~~~~~~~~~~~                   ~~~~~~~~~~~                   ~~~~~~~~~~~     
e|-----------------------------|-----------------------------|-----------------------------|
B|-----------------------------|-----------------------------|-----------------------------|
G|-----------------------------|-----------------------------|-----------------------------|
D|--2--------------------------|--2--------------------------|--2--------------------------|
A|--0--------------------------|--0--------------------------|--0--------------------------|
E|-----0--1--3--2-----------0--|-----0--1--3--2-----------0--|-----0--1--3--2-----------0--|

						End Rhy. Fig. 1
                               |1.----------------------------||2.---------------------------|
                ~~~~~~~~~~~    |              *~~~~~~~~~~     ||              ~~~~~~~~~~~    |
e|-----------------------------|------------------------------||-----------------------------|
B|-----------------------------|-----------------------------.||-----------------------------|
G|-----------------------------|------------------------------||-----------------------------|
D|--2--------------------------|--2---------------------------||--2--------------------------|
A|--0--------------------------|--0--------------------------.||--0--------------------------|
E|-----0--1--3--2-----------0--|-----0--1--3--2-----------0---||-----0--1--3--2-----------0--|

                                              *Sustain note
              				       over next
     					       measure.

Guitar Solo:
(Gtr. 1 w/Riff A, 4 times)

                               ~~~~~~~~~~~~                               ~~~~~~
e|--14-12--------------------------------|-----------------------------10---------------------|
B|--------15-14-12-----------------------|--------------------10h12h14----14-----14-14h15h17--|
G|-----------------14-12-11----11--------|-----------11h12h14---------------------------------|
D|--------------------------14-----------|--11h12h14------------------------------------------|
A|---------------------------------------|----------------------------------------------------|
E|---------------------------------------|----------------------------------------------------|

             full
  --14-15-17-17b----17-15--14--------|------------|
  ----------------------------15-----|------------|
  -------------------------------14--|--(14)\-----|
  -----------------------------------|------------|
  -----------------------------------|------------|
  -----------------------------------|------------|

    /\-----|
  -----------------------------------------------|------------------------------|
  -----------------------------------------------|--------------12----14----12--|
  ------11--12-14-12-11----11-11---11---11---11--|--12-11-12-11----11----11-----|
  ----12----------------14-----------------------|------------------------------|
  --12-------------------------------------------|------------------------------|
  -----------------------------------------------|------------------------------|

    /\------|          ~~~~~~~~   \/----| \/----|
  -------------------------|-------x-------x------|
  -------------------------|--------x-------x-----|
  --------11-12-14b----14--|---------x-------x----|
  ------12-----------------|----------x-------x---|  
  ----12-------------------|-----------x-------x--|
  --14---------------------|----------------------|

  --10-11-12-11-10-----------------------------|
  -----------------12-11-10----11-10-----------|
  --------------------------12-------12-11-10--|
  ---------------------------------------------|
  ---------------------------------------------|
  ---------------------------------------------|

  ---------------------------------------------------|--10----------12-11-10-----------------|
  -----------------------------------------10-12-13--|-----13-12-10----------12-11-10----11--|
  -----11-10----------------------10-11-12-----------|--------------------------------12-----|
  --12-------12-11-10----12-11-10--------------------|---------------------------------------|
  --------------------12-----------------------------|---------------------------------------|
  ---------------------------------------------------|---------------------------------------|

                      ~~~~~~                   ~~~~~~~~~~~~~~
  --------------------------|-----------13------------------------------|
  --10----------------------|--13h15h17----17--17-------------10h12h14--|
  -----12-11-10\\9----------|-------------------------------------------|
  -----------------10-9-----|-------------------------------------------|
  --------------------------|-------------------------------------------|
  --------------------------|-------------------------------------------|

            ~~~~~~~~~
  --10----------------------------------------|
  -----14---14--------------------------------|
  --------------------------------11--11--11--|
  -----------------------11h12h14-------------|
  --------------------12----------------------|
  --------------------------------------------|

...back to tabulature