Rage Against the Machine and Tool Song
Written by Rage and Tool
Tab by Matt Sims: Cacao54321@aol.com	

Tuning is Dropped D, down 1/2 step
Low to high: (Db Ab Db Gb Bb Eb)


 Main Riff			   Same riff but with root fifth power chords
|----------------------------------|---------------------------------------------|
|----------------------------------|---------------------------------------------|
|----------------------------------|---------------------------------------------|
|--/5--2---------------------------|-/12--9---/7--4------------------------------|
|---------/5--2--------------------|-/10--7---/5--2--7p5h7p5-7--2~~~-------------|
|----------------/7p5h7p5-7-2~~~---|-----------------7p5h7p5-7--2~~~-------------|

		      After the chorus play this riff... 
                      (not sure if this is right)    [End with this thing.....]
				|				|
				|				|
|-----X--------------|------------------------|----------------------------------|
|-----X-3------------|------------------------|----------------------------------|
|-----X-2------------|------------------------|----------------------------------|
|--2--X-0--let ring--|---------------0--------|------6-6-6-6-6-6--3-2-0-2-3-2-0--|
|--2--X-0------------|-7-5-------0h2----------|----------------------------------|
|--2--X-0------------|------2-2---------------|----------------------------------|

That's all I got but at least its a start...send me any comments at Cacao54321@aol.com

...back to tabulature