Tabbed by: Taylor Schultz taylor1623@hotmail.com

d =down strum
u =up strum
\ =slide
Intro/outro
|--------------------------------------------|
|--------------------------------------------|
|*-------------------------------------------|
|----4----4---4-----4---4--------------------|
|*-------------------------------------------|
|-------2--------2---------2-----------------|
Repeat as many times as necessary.

|--------x-x-------x-x-x-x-x-x---|
|--------x-x-------x-x-x-x-x-x---|
|*-------x-x-------x-x-x-x-x-x--*|  w/ wah-wah
|*--4-4--x-x--4-4--x-x-x-x-x-x--*|
|---4-4--x-x--4-4--x-x-x-x-x-x---|
|---2-2--x-x--2-2--x-x-x-x-x-x---|
    d d  d u  d d  d u d u d u

|---------------------------------|
|---------------------------------|
|*-------------------------------*|
|*-------------------------------*|
|---------------------------------|
|---0--2--5-5--3/--2-0-2--2-0-0-1-|
                   /|\
                    |
This part was hard to figure out but i think it's right
keeep wah-wah forward

|---------------------------------------------------|
|---------------------------------------------------|
|---------------------------------------------------|
|---4--4-4---4--4\5\4-4---4\5\4-4--4-4-4-4-4-4------|
|---2--2-4---2--4\5\4-4---4\5\4-4--4-4-4-4-4-4------|
|---2--2-2---2--2\3\2-2---2\3\2-2--2-2-2-2-2-2------|
    d  u d   d  d   d d   d   d d  d u d u d u
              Turn off wah-wah
              The above is played 4 times

|------xx-----xx-xx-xx---------------------------|
|------xx-----xx-xx-xx---------------------------|
|------xx-----xx-xx-xx---------------------------|
|--9-9-xx-9-9-xx-xx-xx---------------------------|
|--9-9-xx-9-9-xx-xx-xx---------------------------|
|--7-7-xx-7-7-xx-xx-xx---------------------------|
   d d du d d du du du        Play this 2x
          The above is right before solo with wa-wa

Palm scrape for solo above pickups while playing with switch.

       This below is after the solo
Outro:
|--------x-x-------x-x-x-x-x-x---|
|--------x-x-------x-x-x-x-x-x---|
|*-------x-x-------x-x-x-x-x-x--*|  w/ wah-wah
|*--4-4--x-x--4-4--x-x-x-x-x-x--*|
|---4-4--x-x--4-4--x-x-x-x-x-x---|
|---2-2--x-x--2-2--x-x-x-x-x-x---|
    d d  d u  d d  d u d u d u

The above is played a lot of times
|--------------------------------------------|
|--------------------------------------------|
|*-------------------------------------------|
|----4----4---4-----4---4--------------------|
|*-------------------------------------------|
|-------2--------2---------2-----------------|

...back to tabulature