mic check - Rage Against the Machine
------------------------------------
transcribed by Matt Soby (scortracer5@usa.net)
--------------------------------------------

riff 1

------
with delay- 3 repeats, medium delay time

E|----------14------(14)------(14)-|
B|-------14----(14)------(14)------|
G|----14---------------------------|
D|-16------------------------------|
A|---------------------------------|
D|---------------------------------|

E|----------16------(16)------(16)-|
B|-------14----(14)------(14)------|
G|----14---------------------------|
D|-16------------------------------|
A|---------------------------------|
D|---------------------------------|

E|----------14------(14)------(14)-|
B|-------14----(14)------(14)------|
G|----14---------------------------|
D|-16------------------------------|
A|---------------------------------|
D|---------------------------------|

E|----------13------(13)------(13)-|
B|-------14----(14)------(14)------|
G|----14---------------------------|
D|-16------------------------------|
A|---------------------------------|
D|---------------------------------|

riff 2 (actually a bass riff, but who cares?)
------
delay off, wah on
E|-----------|
B|-----------|
G|-----------|
D|--4--2--4--|
A|--4--2--4--|
D|--4--2--4--|
wah<+><+><+>

riff 2a
-------
E|--------------|
B|--------------|
G|--------------|
D|--------------|
A|--------------|
D|-x\-(x\)-(x\)-|
w/delay on, tremolo pick

riff 3
------
wah off
-------------|
B|-------------|
G|-------------|
D|-11-10-10-10-|
A|-11-10-10-10-|
D|-11-10-10-10-|

solo
----
same kinda thing as bulls on parade
only this time morello uses the wah
and throws in this lick:
E|-------|
B|-------|
G|-------| the solo ends with this as well
D|-7h8p7-|
A|-7h8p7-|
D|-7h8p7-|
wah< + >

riff 4 (ending)
------
E|-16-(16)-(16)-16-16-17-17-17-|
B|-16-(16)-(16)----------------|
G|-13-(13)-(13)----------------|
D|-13-(13)-(13)----------------|
A|-----------------------------|
D|-----------------------------|

...back to tabulature