Title: Killing In The Name
Artist: Rage Against The Machine
Album: Rage Against The Machine
Tabbed by: Kaos (kaos4rage@icqmail.com)

Tuning: Drop D (DADGBe)

Intro:

    D5                      *      ~~~~~~~~~~~~~~~~~~~~~~~~
e|-----|-----|-----|-----|-----|--------------------------|
B|--3--|--3--|--3--|--3--|-----|--------------------------|
G|--2--|--2--|--2--|--2--|-----|--------------------------|
D|--0--|--0--|--0--|--0--|-----|--------------------------|
A|--0--|--0--|--0--|--0--|--6--|--(6)---------------------|
D|--0--|--0--|--0--|--0--|-----|--------------------------|

                            * Fade in w/vol. knob

 |------------------------|-----------------------|-----------------------|
 |.-----------------------|-----------------------|-----------------------|
 |-----------------11-12--|----------------11-12--|----------------11-12--|
 |-----------11-12--------|----------11-12--------|----------11-12--------|
 |.-----------------------|-----------------------|-----------------------|
 |---0--0--0--------------|--0--0--0--------------|--0--0--0--------------|

                  1/2-----|
  -----------------------------||--------------------|--------------------|
  ----------------------------.||--------------------|--------------------|
  ----------------12b---(12)---||--------------------|--------------------|
  ----------11-12--------------||--------------------|--------------------|
  ----------------------------.||-----------6--6--6--|-----------6--6--6--|
  --0--0--0--------------------||--0--0--0-----------|--0--0--0-----------|


  --------------------|-----------------|-----------------------------|
  --------------------|-----------------|-----------------------------|
  --------------------|-----------8--8--|-----------------------------|
  --------------------|-----------------|-------------3h4-------------|
  -----------6--6--6--|-----------6--6--|--0--3h5-x-x-----5--0-2h3-2--|
  --0--0--0-----------|--0--0--0--------|--0------x-x--------0-2h3-2--|


  -----------------------------|-----------------------------|-----------------------------|
  -----------------------------|-----------------------------|-----------------------------|
  -----------------------------|-----------------------------|-----------------------------|
  -------------3h4-------------|-------------3h4-------------|-------------3h4-------------|
  --0--3h5-x-x-----5--0-2h3-2--|--0--3h5-x-x-----5--0-2h3-2--|--0--3h5-x-x-----5--0-2h3-2--|
  --0------x-x--------0-2h3-2--|--0------x-x--------0-2h3-2--|--0------x-x--------0-2h3-2--|


Verse:

                                 |1., 2., 3.---------------------|
                                 |Gtr. 1 w/Rhy. Fill 1, 5th time |
                                 |                               |
e|-------------------------------|-------------------------------|
B|.------------------------------|------------------------------.|
G|-------------------------------|-------------------------------|
D|---------------3h4-------------|--------------3h4--------------|
A|.--0--3h5-x--x-----5--0-2h3-2--|--0--3h5-x--x-----5--0-2h3-2--.|
D|---0------x--x--------0-2h3-2--|--0------x--x--------0-2h3-2---|
     |          |      |        |  |           |      |         |
     |P.M.------|      |P.M-----|  |P.M.-------|      |P.M.-----|


  |4.---------------------------|
  |                             |
  ------------------------------|
  ------------------------------|
  ------------------------------|
  --------------3h4-------------|
  --0--3h5-x--x-----5--0-2h3-2--|
  --0------x--x--------0-2h3-2--|
   |           |
   |P.M.-------|


Rhy. Fill 1:
(Gtr. 1)

                                       tr~~~~~~~
e|------------------------------------------------|
B|------------------------------------------------|
G|-------------------------------------(10-11)10--|
D|--------------3h4-----------10-11-12------------|
A|--0--3h5-x--x-----/10-11-12---------------------|
D|--0------x--x-----------------------------------|


Chorus:

e|------------------------------|-------------------------------|
B|------------------------------|-------------------------------|
G|------------------------------|-------------------------------|
D|-------------9-------------8--|-------------7-----------------|
A|--0--3h5-x-x----0--3h5-x-x----|--0--3h5-x-x--------2h3-2h3-2--|
D|--0------x-x----0------x-x----|--0------x-x-----0--2h3-2h3-2--|

  ------------------------------|----------------------------------|
  ------------------------------|----------------------------------|
  ------------------------------|----------------------------------|
  -------------9-------------8--|-------------7---5-5-5-5-5-5-5-5--|
  --0--3h5-x-x----0--3h5-x-x----|--0--3h5-x-x-----3-3-3-3-3-3-3-3--|
  --0------x-x----0------x-x----|--0------x-x----------------------|
                                                 |               |
                                                 |P.M.-----------|


Interlude:

      play  4 times                             play 4 times
e|----------------||---------------------------------------|
B|.--------------.||.-------------------------------------.|
G|---7--7-----7---||---7--7---x--7---x-x-x-x-x-x-x-x-x-x---|
D|----------------||----------x------x-x-x-x-x-x-x-x-x-x---|
A|.--5--5-----5--.||.--5--5---x--5---x-x-x-x-x-x-x-x-x-x--.|
D|----------------||---------------------------------------|

  *                          play 3 times
  --------------------------------------||--------------------------------------------------|
  .------------------------------------.||--------------------------------------------------|
  ---7--7---x--7---x-x-x-x-x--/7-(7)\---||--7--7---x--7\---/19-19-19-19-19-19-19-19-19-19\--|
  ----------x------x-x-x-x-x------------||---------x----------------------------------------|
  .--5--5---x--5---x-x-x-x-x--/5-(5)\--.||--5--5---x--5\---/17-17-17-17-17-17-17-17-17-17\--|
  --------------------------------------||--------------------------------------------------|

  * w/overdubbed gtr. playing random
    pick scrapes and slides (next 4
    bars).


Rhy. Fig. 1:

e|-----------------------------------|
B|-----------------------------------|
G|--7--7---x--7---x--7---x-----------|
D|---------x------x------x-----------|
A|--5--5---x--5---x--5---x--3--5--3--|
D|--------------------------3--5-----|

                       End Rhy. Fig. 1


Guitar Solo:
(Gtr. 1 w/Rhy. Fig. 1, 8 times)

(Gtr. 2)

 * (15ma)  (8va) (15ma)     (8va)     (15ma)      (8va)    (15ma)      (8va)
e|-------------------------------------------------------------------------------|
B|-------------------------------------------------------------------------------|
G|---17-------------14-14-14-14----------12-12-12-12----------10-10-10-10--------|
D|-------------------------------------------------------------------------------|
A|---------15-15-15-------------12-12-12-------------10-10-10-------------8-8-8--|
D|-------------------------------------------------------------------------------|
 
 * w/Digitech Whammy Pedal: effect is manually shifted between 8va and 15ma from
    			    written part.

  (15ma) (8va) (15ma) (8va)   (15ma)
                                ~~~~~~~
  ------------------------------------|
  ------------------------------------|
  --7-7-7-------5-5-5---------/14-----|
  ----------------------3---5---------|
  --------5-5-5-------3---5-----------|
  ------------------------------------|

   (15ma)       (8va)     (15ma)      (8va)    (15ma)      (8va)    (15ma)      (8va)
  -----------------------------------------------------------------------------------------|
  -----------------------------------------------------------------------------------------|
  --17-17-17-17-------------14-14-14-14----------12-12-12-12----------10-10-10-10----------|
  --------------------------------------------------------------------------------------0--|
  --------------15-15-15-15-------------12-12-12-------------10-10-10-------------8-8-8----|
  -----------------------------------------------------------------------------------------|

  (15ma)  (8va) (15ma) (8va) (15ma)   (8va)
                              ~~~~~~~
  -------------------------------------------|
  -------------------------------------------|
  ----7-7-7---------5---------7--------------|
  ---------------------------------------10--|
  -----------5-5-5-----3-3-3----------12-----|
  -------------------------------------------|

              (15ma)(8va)  (15ma)  (8va)      (15ma)    (8va)  (15ma)         (8va)
    tr~~~~~~~~~       tr~~~~~~~~~       tr~~~~~~~~~~~~~~~
  --------------------------------------|------------------------------------------------|
  --(10-13)10------------(10-13)10------|------------------------------------------------|
  --------------------------------------|------------------------------------------------|
  -----------------10-------------------|------------------------------------------------|
  --------------------12------------x/--|--(10-12)10-----(10)\---10h12p10h12---(12)\-x/--|
  --------------------------------------|------------------------------------------------|

 (15ma) (8va)(15ma) (8va) (15ma)
    ~~~~~     ~~~~~         ~~~~~~~~~~~~~~~~~~~
  -----------------------|--------------------------|
  -----------------------|--------------------------|
  --19--------21---------|--13---------------(13)\--|
  ---------0/--------0/--|--------------------------|
  -----------------------|--------------------------|
  -----------------------|--------------------------|


Bridge:
(Gtr. 1)

 *
e|---------------------------------------------------|
B|---------------------------------------------------|
G|--7-7-7-7-7-7-7-7-7-7-7-7-7-7-7-7-7-7-7-7-7-7-7-7--|
D|---------------------------------------------------|
A|--5-5-5-5-5-5-5-5-5-5-5-5-5-5-5-5-5-5-5-5-5-5-5-5--|
D|---------------------------------------------------|

 * w/overdubbed gtr. playing random pick scrapes and
   slides (next 8 bars)

  ---------------------------------------------------|
  ---------------------------------------------------|
  --9-9-9-9-9-9-9-9-9-9-9-9-9-9-9-9-9-9-9-9-9-9-9-9--|
  ---------------------------------------------------|
  --7-7-7-7-7-7-7-7-7-7-7-7-7-7-7-7-7-7-7-7-7-7-7-7--|
  ---------------------------------------------------|

  ---------------------------------------------------------------------------|
  ---------------------------------------------------------------------------|
  --10-10-10-10-10-10-10-10-10-10-10-10-10-10-10-10-10-10-10-10-10-10-10-10--|
  ---------------------------------------------------------------------------|
  ---8--8--8--8--8--8--8--8--8--8--8--8--8--8--8--8--8--8--8--8--8--8--8--8--|
  ---------------------------------------------------------------------------|

  ---------------------------------------------------------------------------|
  ---------------------------------------------------------------------------|
  --12-12-12-12-12-12-12-12-12-12-12-12-12-12-12-12-12-12-12-12-12-12-12-12--|
  ---------------------------------------------------------------------------|
  --10-10-10-10-10-10-10-10-10-10-10-10-10-10-10-10-10-10-10-10-10-10-10-10--|
  ---------------------------------------------------------------------------|

  ---------------------------------------------------------------------------|
  ---------------------------------------------------------------------------|
  --14-14-14-14-14-14-14-14-14-14-14-14-14-14-14-14-14-14-14-14-14-14-14-14--|
  ---------------------------------------------------------------------------|
  --12-12-12-12-12-12-12-12-12-12-12-12-12-12-12-12-12-12-12-12-12-12-12-12--|
  ---------------------------------------------------------------------------|

  ---------------------------------------------------------------------------|
  ---------------------------------------------------------------------------|
  --15-15-15-15-15-15-15-15-15-15-15-15-15-15-15-15-15-15-15-15-15-15-15-15--|
  ---------------------------------------------------------------------------|
  --13-13-13-13-13-13-13-13-13-13-13-13-13-13-13-13-13-13-13-13-13-13-13-13--|
  ---------------------------------------------------------------------------|

  ---------------------------------------------------------------------------|
  ---------------------------------------------------------------------------|
  --17-17-17-17-17-17-17-17-17-17-17-17-17-17-17-17-17-17-17-17-17-17-17-17--|
  ---------------------------------------------------------------------------|
  --15-15-15-15-15-15-15-15-15-15-15-15-15-15-15-15-15-15-15-15-15-15-15-15--|
  ---------------------------------------------------------------------------|

  --------------------------------------------------------------|
  --------------------------------------------------------------|
  --/19-19-19-19\--/19-19-19-19\--/19-19-19-19\--/19-19-19-19\--|
  --------------------------------------------------------------|
  --/17-17-17-17\--/17-17-17-17\--/17-17-17-17\--/17-17-17-17\--|
  --------------------------------------------------------------|

                  (Gtr. 1, play 8 times)(Gtr. 2, after 4th time)
                                          Dm7
e|-------------------------------------||--5--5--x--x--5--5--5--5--x--x--5--5--5--5--|
B|.-----------------------------------.||--6--6--x--x--6--6--6--6--x--x--6--6--6--6--|
G|---7--7---x--7---x--7---x------------||--5--5--x--x--5--5--5--5--x--x--5--5--5--5--|
D|----------x------x------x------------||--7--7--x--x--7--7--7--7--x--x--7--7--7--7--|
A|.--5--5---x--5---x--5---x--3--5--3--.||--5--5--x--x--5--5--5--5--x--x--5--5--5--5--|
D|---------------------------3--5------||--------------------------------------------|

  --5--5--x--x--5--5--5--5--x--x--5--5--5--5--|--5--5--x--x--5--5--5--5--x--x--5--5--5--5--|
  --6--6--x--x--6--6--6--6--x--x--6--6--6--6--|--6--6--x--x--6--6--6--6--x--x--6--6--6--6--|
  --5--5--x--x--5--5--5--5--x--x--5--5--5--5--|--5--5--x--x--5--5--5--5--x--x--5--5--5--5--|
  --7--7--x--x--7--7--7--7--x--x--7--7--7--7--|--7--7--x--x--7--7--7--7--x--x--7--7--7--7--|
  --5--5--x--x--5--5--5--5--x--x--5--5--5--5--|--5--5--x--x--5--5--5--5--x--x--5--5--5--5--|
  --------------------------------------------|--------------------------------------------|

  --5--5--x--x--5--5--5--5--x--x--5--5--5--5--|
  --6--6--x--x--6--6--6--6--x--x--6--6--6--6--|
  --5--5--x--x--5--5--5--5--x--x--5--5--5--5--|
  --7--7--x--x--7--7--7--7--x--x--7--7--7--7--|
  --5--5--x--x--5--5--5--5--x--x--5--5--5--5--|

  (Gtrs. 1 & 2)                                                        ~~~~~~~~~~
  ---------------------------------------------------|--------------------------|
  ---------------------------------------------------|--------------------------|
  --7-7-7-7-7-7-7-7-7-7-7-7-7-7-7-7-7-7-7-7-7-7-7-7--|--------------------------|
  ---------------------------------------------------|--------------------------|
  --5-5-5-5-5-5-5-5-5-5-5-5-5-5-5-5-5-5-5-5-5-5-5-5--|-----------6--6--6--(6)\--|
  ---------------------------------------------------|--0--0--0-----------------|


	Here you are! Song number 2, (possibly the most classic Rage song EVER!) tabbed for
ya! Listen to the song to get the feel of how to play it! By the way, this is Tom's favorite
song to play live! Rage on!

----------------------------------------------------------------------------------------------

Notation Legend:

   |P.M.| 
   |    |            tr~~~~~~~~         ~~~~~
|---------|    |--------------|     |-------|   |----------|  |-----x\-----|
|--5-5-5--|    |----(7-9)7----|     |--15---|   |---(9)----|  |-----x\-----|
|---------|    |--------------|     |-------|   |----------|  |------------|
|---------|    |--------------|     |-------|   |----------|  |------------|
|---------|    |--------------|     |-------|   |----------|  |------------|
|---------|    |--------------|     |-------|   |----------|  |------------|
 Pick-hand          Trill            Vibrato     Ghost Note    Pick Scrapes
  muting       (fast hammer-on/
             pull-off combination)

...back to tabulature