Rage Against The Machine
New Millennium Homes
EADGBE


|-12~-|
|-----|
|-11~-|
|-----|
|-----|
|-----|
 fade in w/volume knob

Intro
E-----------------|---------------------|
B-----------------|---------------------|
G-----------------|---------------------|
D-----------------|---/5----/7----------|
A---5--------5-7--|------7--------------|
E-0---5\-0-0------|-0----------0-3-5--0-|

Verse
E-------------------|
B-------------------|
G-------------------|
D-------------------|
A-------------------|
E-0--0--0-0--0--0-0-|
  w/wah as filter


Chorus:       
E--------------------0-|
B--------------------3-|
G----------------------|
D--------2-2-2---------|
A----------------------|
E--0-0-0-------0-0-0---|

Solo:I saw something on mtv about rage and tom was using his talman guitar
and started playing somthing that kinda sounded like the solo, i don't know
if it is the talman guitar, but it is nobody can probably play it except him.

comments? sugesstions? icpyro@yahoo.com

...back to tabulature