new millenium homes - rage against the machine
transcribed by matt soby (scortracer5@usa.net)

standard tuning

intro:

E|-------|
B|-------|  feedback- volume swell
G|-11----|
D|-------|
A|-9-----|
E|-------|

riff 1:

E|-------------------|
B|-------------------|
G|-------------------|
D|-------------------|
A|---5-----------5h7-|
E|-0---5\0--0-0------|

ends with

E|------------------|
B|------------------|
G|------2------2----|
D|-5--2----2-5---2--|
A|---------------2--|
E|---------------0--|

riff 2:

E|--------------|
B|--------------| play with low gain
G|--------------| distortion and the 
D|-2-2-22-2-22--| wah about halfway
A|-2-2-22-2-22--| open
E|-0-0-00-0-00--|

riff 3:

E|---------------0--|
B|---------------3--|
G|------444---------|
D|------222---------|
A|-222------222-----|
E|-000------000-----|

solo:

guitar 1:
use fret hand to mute strings and picking hand
to tap lightly on all six strings while rocking
the wah pedal back and forth

guitar 2:

E|---------|
B|---------| for this, set the whammy
G|-12-(11)-| one octave up and do a 
D|---------| trill using the pedal
A|---------|
E|---------|

end solo with feedback at this pitch:

E|----|
B|-15-|
G|----|
D|----|
A|----|
E|----|

...back to tabulature