Standard Tuning(EADGBE)
Note:Tom uses a hollowbody on this track...but I have found that it sounds 
the same on any guitar as long as it uses humbuckers and not single coil 
pickups

INTRO/CHORUS 8 times w\delay and feedback(stand in front of amp)
E-----------------------------------------
B-----------------------------------------
G-----------------------------------------
D-----------------------------------------
A---------------------0-2-----------------
E----0--2-2--0-2--0-2---------------------
Do this 8 more times with just straightup distortion

FILL 1
E-----------------------------------------
B-----------------------------------------
G-2-----1---------------------------------
D-----------------------------------------
A-----------------------------------------
E---2-0---2-------------------------------
VERSE(Rock wah-wah with each beat until Zack is done rapping)
E-----------------------------------------
B-----------------------------------------
G-----------------------------------------
D-----------------------------------------
A-----------------------------------------
E--0-2----0--0--2--0--0--2---0--0--2----0-
Transmission  third world war third round.....
CHORUS(Distortion)
E-----------------------------------------
B-----------------------------------------
G-----------------------------------------
D-----------------------------------------
A---------------------0-2-----------------
E----0--2-2--0-2--0-2---------------------
Lights out! Guerrilla Radio!....

If you've heard the song you know how the rest of the song goes..so I am 
going to skip right to the breakdown

BREAKDOWN(8 times with Small Stone phaseshifter making a slow gyrating 
feel(It should go up and down everytime you restart)
E-----------------------------------------
B-----------------------------------------
G-----------------------------------------
D-----------------------------------------
A---------------------0-2-----------------
E----0--2-2--0-2--0-2---------------------

SOLO(Have Digitech Whammy pedal up one octave while flicking toggle switch 
and rocking wah-wah with each toggle flick)
E---------------------|--------------------|
B---------------------|--------------------|
G---------------------|--------------------|
D---------------------|--------------------|
A-------------------12|--------------------|
E--14--12-14--12-14---|----0---0--0--3h/13/|
       3 times               one time
|------------------------------|-----------------------------------
|------------------------------|-----------------------------------
|------------------------------|-----------------------------------
|------------------------------|-----------------------------------
|---14--12-14--12--14b16r14--12|--14--12-14--12--14b16r14--12-14-12
|---14--12-14--12--------------|--14--12-14--12--------------------
     2 times                         once
than do the Bar chords Bm Bbm Abm and Gm like so(still flicking away)
-7----6---4---3
-7----6---4---3
-7----6---4---3
---------------
---------------
---------------

OUTRO
This one is easy..just distortion                   dudududu
------------------|---------------------------------xxxxxxxx
------------------|---------------------------------xxxxxxxx
------------------|---------------------------------xxxxxxxx
------------------|---------------------------------xxxxxxxx
----x-------------|---------------------------------xxxxxxxx
0-2-x-/14\--------|-2-x-/14\--0-2-x-/14\-0-2-x-/14\-xxxxxxxx
9 times than nine more times..but P.M. 8 times after each third time
with a sweeparpeggio(rake it man)



Charlie McIntosh
 

...back to tabulature