Born as a ghosts by Rage Against The Machine.

Transcribed by Florent Noirjean (F.noirjean@voila.fr)

Standard tuning (EADGBE).



Intro, 1st and 2nd verses.(depress whammy bar -1/2).

E--------------------------------

B--------------------------------

G--------------------------------

D--------------------------------

A--------------------------------

E-----0-------(0)-------0--------





1st, 2nd and 3rd Chorus :

E--------------------------------------------------

B--------------------------------------------------

G--------------------------------------------------

D----X--------------------10-9--------------------

A----X--5--------5-(6)---------------------------

E ------------0-0---------------------------------



Guitar solo :

1 st part : make some noises.

2nd part :TS as Toggle Switch

E-------------------------------------------------------------------------14-----------------------------------------------------------15---

B-----0-----15-------0-----15----0-----15----0-----15----0-----15--------0-----15------0-----15-------0-----------15--------------

G-----0--------12----0------------0------------0------------0-----------------0-------------0--------12----0----12---------12--------

D-----0---------------0------------0------------0------------0-----------------0-------------0---------------0--------------------------

A--------------------------------------------------------------------------------------------------------------------------------------------

E--------------------------------------------------------------------------------------------------------------------------------------------

___TS________TS_____TS______TS_____TS________TS_______TS_______TS_____________



End

E-----------------------------

B-----------------------------

G-----------------------------

D-----------------------------

A---------------------5-------

E-----0---------------0-------