Freedom Live-Solo
  -----------------

  from the Live and Rare - Album

  by Torben Pauls

  Comments : tpauls@t-online.de

  Dropped D-Tuning

  This is how I play it. There are some mistakes( Im not sure about some slides and the harmonics).

  E---------------------------------------------------------------------------------
  B---------------------------------------------------------------------------------
  G--------------------------------------------------------------------10\9\7\5/9\7-
  D-12h14-15-14-15-----15\14\12/14------------10----10-----------10h12--------------
  A-------------------------------------10h12----12--------10h12--------------------
  D---------------------------------------------------------------------------------

                        This part is hard to hear. The xs are harmonics on the 12th fret.
 						     ||
 						     \/
   -------------------------------------------------x---x-------12-13-12-13-12---
   -------------------------------------------------x---x------x--------------13-
   -------------------------------------------------x---x-----x------------------
   -12h14-15-14-15-----15/17/19/20\19\17\15\14------x---x----x-------------------
   -------------------------------------------------12\-x---x--------------------
   ------------------------------------------------------------------------------

   -----12-13-12-13-12--------12-13-15-17-17-17-17-17-17-15\13-12----
   ----x---------------13----x------------------------------------15-
   ---x---------------------x----------------------------------------
   --x---------------------x-----------------------------------------
   -x---------------------x------------------------------------------
   ------------------------------------------------------------------

...back to tabulature