Freedom
By: rage against the machine
Tabbed by: mike lagace
Tune down to D

part 1
E-------------------------------------------------x-x-x---------
B-------------------------------------------------x-x-x---------
G-------------------------------------------------x-x-x---------
D-------------------------------------------------x-x-x---------
A---5-------3---------5-5----5-------3---------5----------------
D-----0-3-5---5-3-5-3----0-3---0-3-5---5-3-5-3------------------

E---------------------------------------------------------------
B---------------------------------------------------------------
G---------------------------------------------------------------
D-------------------------------------------------5-4-3---------
A---5-------3---------5-5----5-------3---------5--------5-4-3---
D-----0-3-5---5-3-5-3----0-3---0-3-5---5-3-5-3------------------

E---------------------------------------------------------------
B---------------------------------------------------------------
G---------------------------------------------------------------
D-----------------------------------------------------*---------
A---5-------3---------5-5----5-------3---------5------*---------
D-----0-3-5---5-3-5-3----0-3---0-3-5---5-3-0-3--------*---------
   * = pick just before the nut at the guitar, it gives
       you instant feedback.  You can CLEARLY see Tommy
       doing this in the Freedom concert footage


THE REST OF THIS IS ACCURATE AS FAR AS I PLAY IT
================================================

part2
E----------------------------------------------------------
B----------------------------------------------------------
G-55-5-xxx-55-5-xxx-55-5-xxx-------------------------------
D-55-5-xxx-55-5-xxx-55-5-xxx-5\4/5\4/5-repeat-2x-----------
A------xxx------xxx------xxx-3\2/3\2/3---------------------
D------xxx------xxx------xxx-------------------------------
repeat part1

E---------------------------------------------------------------
B---------------------------------------------------------------
G---------------------------------------------------------------
D---------------------------------------------------------------
A----3-3-3-3-----3-5-5-5-5--3---3--5h---------------------------
D------------5-3--------------5---------------------------------

E---------------------------------------------------------------
B---------------------------------------------------------------
G----5-5-5-5------5-7-7-7-7-----5-7-----------------------------
D------------5-3-------------5-3--------------------------------
A---------------------------------------------------------------
D---------------------------------------------------------------

SOLO

E---------------------------------------------------------------
B----------------------------------5-6--------------------------
G-------10H-10-9h------5h------5-7-----7h----------10H----------
D-10/12------------5-7------5-7--------------10/12--------------
A---------------------------------------------------------------
D---------------------------------------------------------------


E----------------------------------12-12h13p12------------------
B--------------------------------13-----------13----------------
G-10-10/12/14/15\14\12\10\9h---14-------------------------------
D---------------------------------------------------------------
A---------------------------------------------------------------
D---------------------------------------------------------------


E--------12-12h13p12-----------12-12-13-1515-15h17p15-12-13-10-10-10
B-----13-------------13-----13--------------------------------------
G--14--------------------14-----------------------------------------
D-------------------------------------------------------------------
A-------------------------------------------------------------------
D-------------------------------------------------------------------


E---------------------------------------------------------------
B--------------------------------------------first time ends 3--
G--------------------------------------------second time ends 5-
D----------------5-3-5-3-5-------------------3*--5*-------------
A------5-3-5-3-5----------3-2-3-2-3----------3*--5*-------------
D----------------------------------5-3-5-3-5-3*--5*-------------


E---------------------------------------------------------------
B---------------------------------------------------------------
G-----------5-6-7-----------------------------------------------
D---3-4-5-----------repeat 2x---------------------------------
A-5-------------------------------------------------------------
D---------------------------------------------------------------

E--------------------
B--------------------
G--------------------
D------------2-5-6-7-
A--0--3-4-5--0-3-4-5-
D--0--3-4-5----------

...back to tabulature