Freedom - Rage Against the Machine
----------------------------------

Dropped D tuning (DADGBE)

Intro:

Part 1:

E-------------------------------------------------x-x-x---
B-------------------------------------------------x-x-x---
G-------------------------------------------------x-x-x---
D---------------------------------------------------------
A---5-------3---------5-5----5-------3----------5---------
E-----0-3-5---5-3-5-3----0-3---0-3-5----5-3-5-3-----------

E---------------------------------------------------------
B---------------------------------------------------------
G---------------------------------------------------------
D-------------------5-5-----------------------5-4-3-------
A-5-------3-----------------5-------3---------------5-4-3-
E---0-3-5---5-3-5-3-----0-3---0-3-5---5-3-5-3-------------

E-------------------------------------------------5-5-5-5------
B--------------------------------------------------------------
G--------------------------------------------------------------
D-------------------5-5-----------------------------------12b5-
A-5-------3-----------------5---------3---------5---------12b5-
E---0-3-5---5-3-5-3-----0-3---0-3-5-5---5-3-5-3----------------

E---------------------------------------------------------
B---------------------------------------------------------
G---------------------------------------------------------
D-------------------5-5-----------------------5-----------
A-5-------3-----------------5-------3---------------------
E---0-3-5---5-3-5-3-----0-3---0-3-5---5-3-5-3-------------

Part 2:

E: --5-5---5-5-----------------------------------------------------------|
B: --5-5---5-5-----------------------------------------------------------|
G: --5-5---5-5-----------------------------------------------------------|
D: --5-5---5-5-etc--5-4-5-4-5--------------------------------------------|
A: --0-0---0-0------3-2-3-2-3--------------------------------------------|
D: --0-0---0-0-----------------------------------------------------------|

After 'anger is a gift':

E---------------------------------------------------------------
B---------------------------------------------------------------
G---------------------------------------------------------------
D---------------------------------------------------------------
A----3-3-3-3-----5-5-3---3-5------------------------------------
D------------5-3-------5----------------------------------------

Changing to: (twice)

E---------------------------------------------------------------
B---------------------------------------------------------------
G----5-5-5-5-----7-7-7-7-7-7-7-7-7-7----------------------------
D------------5-3------------------------------------------------
A---------------------------------------------------------------
D---------------------------------------------------------------

Then:

E---------------------------------------------------------------
B---------------------------------------------------------------
G---5-5-5-5-----7-7-5---5-7-5-5-5-5-----7-----------------------
D-----------5-3-------5-------------5-3---7b12------------------
A---------------------------------------------------------------
D---------------------------------------------------------------

Solo, transcribed by Nate Skiba:

  h:  hammer-on
(9):  ghost note
s\\:  slide down from indicated note to any note on the neck 
//s:  slide up from anywhere on the neck
tb:  tweak bend (1/4 of a step)
  x:  mute
  b:  bend one full step
~~~:  vibrato
  r:  release bend


e----------------------------
b----------------------------
g----------------------------
d-//s12h14h15--15p14--(14)s\\
a----------------------------
d----------------------------

e-------------------------------------------
b-------------------------------------------
g-----------------------10-(10)tb-----------
d---------10--------10-----------12--(12)s\\
a-//s10h12----10-12-------------------------
d-------------------------------------------

e-------------------------------------
b-------------------------------------
g-------------------------------------
d-//s12h14h15--15s17s19s20s19s17s15s14
a-------------------------------------
d-------------------------------------

e-12-13-12----12-13-12----12-13-1515b17~~~r15-13-12-10-10-10
b--x-------13--x-------13--x--------------------------------
g--x-----------x-----------x--------------------------------
d--x-----------x-----------x--------------------------------
a--x-----------x-----------x--------------------------------
d-----------------------------------------------------------

The end of the song goes:
Play this softly with no distortion. (Normally played by bass)

---------------------------------------------------------------------------- 
----------------------------------------------------------------------------
----------------------------------------------------------------------------
----------------------------------------------------------------------------
--------------------3--4--5-------------------------------------------------
-----0--3--5--6--7----------------------------------------------------------

Next, with heavy distortion:

----------------------------------------------------------------------------
----------------------------------------------------------------------------
----------------------------------------------------------------------------
--------------------5--6--7-------------------------------------------------
-----0--3--5--6--7--3--4--5-------------------------------------------------
-----0--3--5--6--7----------------------------------------------------------

...back to tabulature