Know Your Enemy - Rage Against The Machine

Intro :
Play Twice

E: ------------------------------------------------------------------------|
B: ------------------------------------------------------------------------|
G: -------------------------9--------------------------------10------------|
D: --11---9---11---9---11---9---11----11---9---11---9---11---10---11-------|
A: --11---9---11---9---11-------11----11---9---11---9---11--------11-------|
E: ------------------------------------------------------------------------|

E: -------------------------------------------------------------------------|
B: -------------------------------------------------------------------------|
G: -------------------------9-----------------------------------------------|
D: --11---9---11---9---11---9------11---9---9---9---9---9---9---9-----------|
A: --11---9---11---9---11----------11---9---9---9---9---9---9---9-----------|
E: -------------------------------------------------------------------------|

(Alternate Intro by Jordan:

E: ------------------------------------------------------------------------------------------------|
B: ------------------------------------------------------------------------------------------------|
G: -------------------------------9-------------------------------------------11---9------------|
D: --11---9---11---9---11---7--11----9----11---9---11---9---11---9----7-----9-----|
A: ---9----7----9----7----9--------9-----7-----9----7----9---7----9----------------7-----|
E: ------------------------------------------------------------------------------------------------|

E: ----------------------------------------------------------------------------------------------|
B: ----------------------------------------------------------------------------------------------|
G: -------------------------------9-------------------------------------------------------------|
D: --11---9---11---9---11---7---11----9---11---9---9---9---9---9---9----10-------|
A: ---9----7----9----7----9---------9-----7---11---7---7---7---7---7---7-----8-------|
E: ----------------------------------------------------------------------------------------------|  )

Part 1:

E: --------------------------------------------------------------------------|
B: --------------------------------------------------------------------------|
G: --------------------------------------------------------------------------|
D: -----------------2--------------------------------5--4--2-----------------|
A: --2h4---4--4--2--0--4--2--4-------2h4---4--4--2---3--2--0-----------------|
E: --0h2---2--2--0-----2--0--2-------0h2---2--2--0---------------------------|

E: --------------------------------------------------------------------------|
B: --------------------------------------------------------------------------|
G: --------------------------------------------------------------------------|
D: -----------------2----------------7s6--6s4--4s2---------------------------|
A: --2h4---4--4--2--0--4--2--4-------5s4--4s2--2s0---2-----------------------|
E: --0h2---2--2--0-----2--0--2-----------------------0-----------------------|

Part 2:
E: --------------------------------------------------------------------------|
B: --------------------------------------------------------------------------|
G: --------------------------------------------------------------------------|
D: ---4--------------------------2--3---4------------------------------------|
A: --------------------2--3--4----------------------------2--3--2------------|
E: ------2--0--2--5-------------------------2--0--2--5-------------5--2------|

Part 3:
The bridge where Maynard James Keenan from Tool is singing

E: --------------------------------------------------------------------------|
B: ----------------------------------------------------------------2---------|
G: ----------------------------------------------------------------2---------|
D: --------------------------------------------------------------------------|
A: --2h4---4--4--4-----2h4---4--4--4-----2h4---4--4--4-----------------------|
E: --0h2---2--2--2-----0h2---2--2--2-----0h2---2--2--2-----------------------|

E: --------------------------------------------------------------------------|
B: ----------------------------------------------------------5--4--2---------|
G: ----------------------------------------------------------5--4--2---------|
D: --------------------------------------------------------------------------|
A: --2h4---4--4--4-----2h4---4--4--4-----2h4---4--4--4-----------------------|
E: --0h2---2--2--2-----0h2---2--2--2-----0h2---2--2--2-----------------------|

Transcribed by Aaron Klink (aklink@umich.edu)

Solo transcribed by lacouchon@aol.com

E------------------------14---11w-11----------
B--11/14--11/14--11/14-15--14-11w-11-15-14-13-
G------------------------------------15-14-13-
D---------------------------------------------
A---------------------------------------------
E---------------------------------------------

E------------------------171717181818--------------
B-11/13-----------171717--------------181818-------
G-11/13--161616-----------------------------171717-
D--------------------------------------------------
A--------------------------------------------------
E--------------------------------------------------

E-----------20----------20-------191919--------
B-------1919----------19-------18------1818----
G-181818--------181818-----1717-------------17-
D----------------------------------------------
A----------------------------------------------
E----------------------------------------------

  rake
E-----16-----16-----19------20---------17----16----15-
B---16-----16-----18--18--19--19-----16----15----14---
G-15-----15-----17------17------18-15----14----13-----
D-----------------------------------------------------
A-----------------------------------------------------
E-----------------------------------------------------

E-------------
B-15h17-18-16-
G-------------
D-------------
A-------------
E-------------

hit with edge of your pick
E------------------------------------------
D------------------10-8-9-7-6--------------
G-11-11-11-11-11-11-----------7-7-9-8-8-10-
D------------------------------------------
A------------------------------------------
E------------------------------------------

E----------------------------------------------
D----10---9---8---6w---------------------------
G-t(11)--t(11)-t(11)-t(11)---11-11-11-11-11-11-
D----------------------------------------------
A----------------------------------------------
E----------------------------------------------

E--------------------------------------------------
D--------------------------------------------------
G-t-11-t-9-t-10w--12-12-12-12-12-12-t-12-t-10-t-11-
D--------------------------------------------------
A--------------------------------------------------
E--------------------------------------------------

E----------------------------------
D-------------------16-t-14--------
G-13-13-13-13-13-13----------------
D----------------------------------
A---------------------------7-6-4~-
E---------------------------5-4-2~-

E-5-5-5-6-6-4-3-5-5-5-----
D-5-5-5-6-6-4-3-5-5-5-----
G-5-5-5-6-6-4-3-5-5-5-----
D-------------------------
A-------------------------
E---------------------6b~-

E-8/10-8/10-8/10-8/10^-
D-8/10-8/10-8/10-8/10^-
G----------------------
D----------------------
A----------------------
E----------------------
end song with verse

...back to tabulature