Born of a broken man
Rage against the machine
Tabbed by: Itai Miller

drop d tuning

everyone else is wrong

intro/verse
listen to tell strum pattern, but this is the order


--------------------------------------------------
--------------------------------------------------
---14---13----16---0------4-----2-----------------slide 2-14 for repeat
(not always)
---0----0-----0----0------0-----0-----------------
---0----0-----0----0------0-----0-----------------
---0----0-----0-----------0-----0-----------------



listen closely and see if the open LOW D is ever played or not, or maybe
some of the time
but the A and higher D are definately there.

volume swell between verse and chorus


chorus riff
------------------------------------------------x----x----x---x-----
------------------------------------------------x----x----x---x-----
------------------------------------------------x----x----x---x-----
---------5b6r5---3----0-----7---0----3----0-----x----x----x---x-----
-----------------3----0-----7---0----3----0-----x----x----x---x-----
----0------------3----0-----7---0----3----0-----x----x----x---x-----



------------------------------------
------------------------------------
------------------------------------
-3---0----7---0---3----0------------
-3---0----7---0---3----0------------
-3---0----7---0---3----0------------


"third time play" :

------------------------------------------------x----x----x---x-----
------------------------------------------------x----x----x---x-----
------------------------------------------------x----x----x---x-----
---------5b6r5---3----0-----7---0----3----0-----x----x----x---x-----
-----------------3----0-----7---0----3----0-----x----x----x---x-----
----0------------3----0-----7---0----3----0-----x----x----x---x-----


BASS CONTINUES WITH CHORUS RIFF
-------------------------------------------------------------------
-------------------------------------------------------------------
-------------------------------------------------------------------
--3----0-----------7b8r7------------------------------------------- on
this line
--3----0-----------------------------------------------------------pluck
on up and
--3----0-----------------------------------------------------------back
down



"apres chorus"
mute open after hitting 7th time
-------------------------------------------------------------------
-------------------------------------------------------------------
-------------------------------------------------------------------
---------------------10-----12-------------------------------------
vibrato both notes
-------------------------------------------------------------------
--0-0-0-0-0-0-0----------------------------------------------------

"apres apres chorus"

-------------------------------------------------------------------
-------------------------------------------------------------------
-------------------------------------------------------------------
----------5b6r5---3---0---7---0---3---0----------------------------
------------------3---0---7---0---3---0----------------------------
---0--------------3---0---7---0---3---0----------------------------




intro once

volume swell

chorus riff
repeat
"third time play"
chorus riff

play verse twice

volume swell

chorus riff
repeat
"third time play"
chorus riff

play verse 3 times

volume swell

chorus riff
repeat
"third time play"
chorus riff
"apres chorus" 3 times
"apres apres chorus"

verse twice (notice single string plucking of [13, 14, 16 frets]!!!)

quiet:
chorus riff
repeat


Loud:
chorus riff
repeat
"third time play"
chorus riff
"apres chorus" 3 times
"apres apres chorus"
"apres chorus" 3 times
"apres apres chorus"

retard on end of last riff!

complaints, praise, love letters to: elessar@lowdown.com

...back to tabulature