born of a broken man- rage against the machine
transcribed by matt soby (scortracer5@usa.net)

drop-d tuning

riff 1 - played clean, with the volume back a bit
------

E|----------------------------------------------------------
B|----------------------------------------------------------
G|-14--14--14-14-14--14-14-14-13-13--13--13-13-15--15-15-15-
D|-12--12--12-12-12--12-12-12-12-12--12--12-12-12--12-12-12-
A|-0---0---0--0--0---0--0--0--0--0---0---0--0--0---0--0--0--
D|-0---0---0--0--0---0--0--0--0--0---0---0--0--0---0--0--0--

E|-------------------------------------|
B|--------------------------------3-3--|
G|-12--12--12-12-12--12-12-12--4--2-2--| fade in distortion, or
D|-12--12--12-12-12--12-12-12--0--0-0--| do a volume fade
A|-0---0---0--0--0---0--0--0---0--0-0--|
D|-0---0---0--0--0---0--0--0---0--0-0--|

riff 2
------

E|--------------------------------------------|
B|--------------------------------------------|
G|------------5-----------------------5-------| X2
D|-0--5^-3-0----------------------------------|
A|--------------------------------------------|
D|-------------0--3-0-x-x-x-x-0-3--0---0--3-0-|

E|-----------------------------------------------|
B|-----------------------------------------------|
G|------------5----------------------------------| 
D|-0--5^-3-0--------------------------0--7^------| bend and tremelo
A|-----------------------------------------------| pick while releasing
D|-------------0--3-0-x-x-x-x-0-3--0-------------|

E|--------------------------------------------|
B|--------------------------------------------|
G|------------5-----------------------5-------| 
D|-0--5^-3-0----------------------------------|
A|--------------------------------------------|
D|-------------0--3-0-x-x-x-x-0-3--0---0--3-0-|

riff 3
------

E|--------------------------|
B|--------------------------|
G|----------------5--5-7-7--|
D|--------------------------|
A|--------------------------|
D|-0-0-0-0-0-0-0------------|

near the end of the song, play the first part of riff 2
with the wah-wah all the way open

...back to tabulature