Rage Against the Machine - War Within a Breath
Tabbed by icpyro@yahoo.com
Drop Db tuning

Verse 
   Harm-------|
Eb|------------|
Bb|------------|
Gb|------------| 
Db|---------12-| 
Ab|------12----| 
Db|------12----| 
   *w/Digitech whammy set 2 octaves higher


Pre-Chorus
|-------------------------------------------------------------------------|
|-------------------------------------------------------------------------|
|-------14----14----------13----13----------12----12----------11----11----|
|-12-12----12----12-12-12----12----12-12-12----12----12-12-12----12----12-|
|-------------------------------------------------------------------------|
|-------------------------------------------------------------------------|
       *-----------|     *-----------|     *---------|       *-----------|
*let ring

Chorus
|-------------|
|-------------|
|-------------|
|-------------|
|-------3-5---|
|-0-3-5-----3-|

Verse

Bridge
|-----------------|
|-----------------|
|-x-x-x-x-x-x-x-x-|
|-x-x-x-x-x-x-x-x-|
|-x-x-x-x-x-x-x-x-|
|-----------------|


Breakdown
|---------------------------|
|---------------------------|
|--2-2--2/4-4--4/6--6\2/4\2-|
|--0-0--0-0-0--0-0--0-0-0-0-|
|--0-0--0-0-0--0-0--0-0-0-0-|
|--0-0--0-0-0--0-0--0-0-0-0-|
                *----------|
*trem picking

Chorus

Ending (with whammy)
 Harm------|
|--12---12--|
|--12---12--|
|--12---12--|
|--12---12--|
|-----------|
|-----------|

Outro
|----------------|
|----------------|
|----------------|
|----------------|
|----------------|
|--14b15r14------|