Rage Against The Machine - War Within A Breath
----------------------------------------------

Trancribed By Kenny Luong (kluong@accessv.com)

Tune your 6th string to Db (Low To high Db A D G B E)

Intro/Verse
///////////

play this with a whammy pedal set to harmonize 2 octaves above the given pitch
and use distortion

|--------------|
|----------14--|  // = tremolo pick
|--------------| 
|--11//--------|
|--------------|
|--------------|

Pre-Chorus
//////////

play with clean tone and let the notes ring

|-------------------------------------------------|
|-------------------------------------------------|
|-------13----------12-----------11-----------10--|
|--11---------11-----------11----------11---------|
|-------------------------------------------------|
|-------------------------------------------------|

play this on the 2nd time:

|---------------|
|---------------|
|--x-x-x-x-x-x--|
|--x-x-x-x-x-x--|
|--x-x-x-x-x-x--|
|--x-x-x-x-x-x--|

Chorus
//////

play with distortion!

|-----------------|
|-----------------|
|-----------------|
|-----------------|
|----------2-4----|
|--0--3--5-----3--|


Bridge
//////

play with distortion

|------------------------------------------|
|------------------------------------------|
|-------------13/15-15-15/17--15-13/15/13--|
|------------------------------------------|
|-------------11/13-13-13/15--13-11/13/11--|
|--0---------------------------------------|

Outro
/////

play this with a whammy pedal set to harmonize 2 octaves above the given pitch
and use distortion

|---------------------|
|---------------------|  // = tremolo pick
|---------------------| 
|--11//---------11//--|
|---------------------|
|---------------------|