Autologic - Rage Against The Machine
------------------------------------

Transcribed By Kenny Luong (kenny.luong@usa.net)

Intro
/////
-
E|--0------------0----0--------------2/12--|
B|------2-----------------2----------2/12--|
G|----------0-----------------0------2/12--|
D|-----------------------------------2/12--|
A|-----------------------------------------|
E|-----------------------------------------|

Depress the whammy bar when playing this part

E|-----|
B|-----|
G|--7--|  
D|--7--|
A|--5--|
E|-----|

Post Intro/Chorus
/////////////////

E|----------------------------------------------------|
B|----------------------------------------------------|
G|----------------------------------------------------|
D|-------------------3--------------------------------|
A|--3--5-----3--5-5-----5--3---3--5-------3-----------|
E|-------------------------------------5-----5--3--1--|

E|----------------------------------------------|
B|----------------------------------------------|
G|----------------------------------------------|
D|-------------------3--------------------------|
A|--3--5-----3--5-5-----5--3---3--5-------------|
E|-------------------------------------5--4--3--|

1st Pre Verse
/////////////

E|-----|---------|
B|-----|---------|
G|--7--|--xxxxx--|
D|--x--|--xxxxx--|
A|--5--|--xxxxx--|
E|-----|--xxxxx--|

Verse
/////

E|-------------------|--------|
B|-------------------|--------|
G|-------------------|--------|
D|--5--7--xxxxxxxxx--|-10-10--|
A|--5--7--xxxxxxxxx--|-10-10--|
E|--3--5--xxxxxxxxx--|--8--8--|


2nd Pre Verse
/////////////

E|-----------------|----------9------|
B|----------8------|------8-------8--|
G|------7-------7--|--6--------------|
D|--5--------------|-----------------|
A|-----------------|-----------------|
E|-----------------|-----------------|

end with

E|--^9--|
B|--^8--|
G|------|
D|------|
A|------|
E|------|

Solo
////

Your on your own...

Outro
/////

E|-----|--66/10-10-11-10-1212--|
B|-----|--66/10-10-11-10-1212--|
G|--7--|--66/10-10-11-10-1212--|
D|--7--|-----------------------|
A|--5--|-----------------------|
E|-----|-----------------------|

...back to tabulature