ASHES IN THE FALL by Rage Against The Machine.

Transcribed by Florent Noirjean ( F.noirjean@voila.fr )



D Dropped Tuning (DADGBE).



RIFF 1 : Harmonizer set one octave up.

E-----17------17-----17-17-------17------17-18------18-------18-18------18------18-20------20-------20-20-------

B-------15-15---15-15-----15-15---15-15------15-15---15-15------15-15---15-15------15-15---15-15------15-15-

G--------------------------------------------------------------------------------------------------------------------------

D--------------------------------------------------------------------------------------------------------------------------

A--------------------------------------------------------------------------------------------------------------------------

D--------------------------------------------------------------------------------------------------------------------------



E-----20-------20-18-------18-------18-18-------18------18-----------------------------------------------------------

B--------15-15-------15-15---15-15-------15-15---15-15--------------------------------------------------------------

G-------------------------------------------------------------------------------------------------------------------------

D-------------------------------------------------------------------------------------------------------------------------

A-------------------------------------------------------------------------------------------------------------------------

D-------------------------------------------------------------------------------------------------------------------------



RIFF 2 : Delay + whammy set on harmonizer (down 1 oct - up 1 oct).


_____+_________________
E-----22------20--------------

B------------------------------

G------------------------------

D------------------------------

A------------------------------

D------------------------------



RIFF 3 :With wah on bass position and 1 oct down.

E--------------

B--------------

G--------------

D-----5~------

A--------------

D--------------



RIFF 4 :

E-------------------------------------------X------------------------------

B-----------------------------------------X--X----------------------------

G------------------X-X-X-------------X-------X-X-X-X--X-X-X-X-----

D-------------8~--X-X-X-----------8----------X-X-X-X--X-X-X-X-----

A-----0----------------------0----0----------------------------------------

D-----0----------------------0----0----------------------------------------


RIFF 5 :

E-----------------------------------------------------------------------

B-----------------------------------------------------------------------

G-----------------------------------------------------------------------

D-----7-0-0-7-0-0-7-7-0-0-7-0-0-7-3-0-0-3-0-0-3-3-0-0-3-0-0----

A-----------------------------------------------------------------------

D-----------------------------------------------------------------------



Structure :

-Intro : riff 1 (2 times).

-1st verse : riff 2 (4 times).

-Chorus : riff 3 (8 times).

-2nd and 3rd verses : riff 2 (9 times).

-Chorus : riff 3 (8 times).

-Bridge : riff 1 (2times).

-Break : riff 4 (4 times).

-Pre chorus : riff 5 (4 times).

-Chorus : riff 3 (8 times).

-Bass part.

-End : make a kind of siren sound with Tom's DJ scratching technic (whammy set 2 oct up,delay and wah on treble
position).