Wind Below

By: B Rogers (br12062@www.cedarnet.org)
riff a - this riff is really wierd. It's in 9/4 time, so it's hard to
count out, but it can be figured out pretty easily.

    s  s  s  s  s  e  e  s  e  s  E  s  E  s  s  s  s  s  s  e  q  q 
G---------------------------------------------------------------r--r--|
D---------------------------------------2-----------------------e--e--|
A---2--0--2--3--2--0-----------0-----4-----2--1--2--4--2--1-----s--s--|
E---------------------2--1--0-----2--------------------------0--t--t--|
                                                                        
Riff b & c are both back in standard 4/4 time.

    s  s  s  s  s  e  s  h    riff b  
G---------------------------|
D---------------------------|
A--/7-----7--5--------------|
E------7--------3--0--0--0/-|
                                                                        

    s  s  s  s  q  q  e  s  s      riff c
G---------------r--r--r--r-----|
D---------------e--e--e--e-----|
A---------------s--s--s--s-----|
E---1--1--0--0--t--t--t--t--0--|
                                                                        

    s  s  s  s  s  s  s  s  q  e  s  s                                  
G---------------------------r--r--r-----|
D---------------------------e--e--e-----|
A---------------------------s--s--s-----|
E---1--1--0--0--1--1--0--0--t--t--t--0--|

Order-O-Riffs
                                                                        
riff a x 4
riff b x 12
riff a x 4
riff b x 8
riff a x 4
riff c x 2
riff b x 8
riff b x 22 soft
riff b x 2 growing louder
riff b x 12 loud

----------              
----5/8--- Slide Up       
----------               

Rhythm:
  w = whole note            W = dotted whole
  h = half note             H = dotted half
  q = quarter note          Q = dotted quarter
  e = eighth note           E = dotted eighth
  s = sixteenth note        S = dotted sixteenth
  t = 32nd note             T = dotted 32nd
  x = 64th note             X = dotted 64th
  ^ = triplet

...back to tabulature >