Wake Up

By: R.Allen Canterbury (acanterb@mail.vt.edu)
This is a real cool song.  Timmy does some neat stuff--variations on what
I call "Riff 4."  I've tried to pick them up and make note of them when they
happen (by writing my own variation of Riff 4.), but what's written is by
no means what Timmy's playing.  It only sounds neat to me.  :)  I think the
entire song is here, at least in format.  A few slides here and there I 
may have missed.  Enjoy!  Keep on Raging!

"Dropped D" tuning (D,A,D,G)

   Intro        Riff 1.                  (x7)
G:------------|---------------------------------|---------------------|
D:------------|*-------------------------------*|---------------------|
A:------------|*-------------------------------*|---------------------|
D:-0-0-0-0-0--|---0-0-0-0-0---0-0-0-0-0-0-0-0---|--0-0-0-0-0---0-0-0--|


   Riff 2                            (x7)
G:----------------------------------------|
D:*--------------------------------------*|
A:*-----------3---0-2h3------------------*|
D:---0---0-0-------------0--3h5--0--3-2---|


    Riff 3
G:----------------------------------|----------------|
D:--------------------0-2h3--0-3h5--|--Riff-2--(x4)--|
A:-----------3--0-3h5---------------|----------------|
D:--0---0-0-------------------------|----------------|


   Riff 4.                    (x6)
G:---------------------------------|------------|--------------|
D:------------3--------5-----------|---REST-----|-Riff-4-(x3)--|
A:--3--5---5-----5--3-----3--3-4---|------------|--------------|
D:---------------------------------|------------|--------------|


G:-----------------------------------------|---------------|---------|
D:---------------------7-7--5-----5--------|--Riff-4-(x3)--|---------|
A:--3--5---5--5--5---5---------7-----7--5--|---------------|--3--5\--|
D:-----------------------------------------|---------------|---------|


G:---------------|--------|-------------|---------------|
D:--Riff-2-(x3)--|-Riff-3-|-Riff-2-(x4)-|--Riff-4-(x3)--|
A:---------------|--------|-------------|---------------|
D:---------------|--------|-------------|---------------|


G:----------------------------------------|-------------|-------|
D:--------3--3--5---5--5--7---3--3--5-----|-Riff-4-(x3)-|-REST--|
A:-3--5--------------------------------3--|-------------|-------|
D:----------------------------------------|-------------|-------|


G:---------------|-----------------------------------------------|
D:--Riff-4-(x3)--|---------------3---5--5--7--7--3--3--5--3------|
A:---------------|--3--5---5--5------------------------------5---|
D:---------------|-----------------------------------------------|


G:---------------|---------|--------------|----------|-------------|
D:--Riff-4-(x3)--|---------|--Riff-2-(x3)-|--Riff-3--|-Riff-2-(x3)-|
A:---------------|--3--5\--|--------------|----------|-------------|
D:---------------|---------|--------------|----------|-------------|


G:--------------------------------------------------------------------------|
D:--------------------------------------------------------------------------|
A:----------3---2h3---------------------------------------------------------|
D:--0---0-0---0------5-5-0-3-5-0-5-0----5-5-0-3-5-0-5-3----5-5-0-3-5-0-5-0--|

                                                   (x8)
G:----------------------------------|-------------------|-------------|
D:*--------------------------------*|*-----------------*|-------------|
A:*--------------------------------*|*-----------------*|-------------|
D:--5-5-0-5-0-3-5----5-5-0-5-0-3-5--|--0-5-5-0-5-0-3-5--|--0-0-0-0-0--|


G:--------------------|---------------|---------|---------------|
D:-Riff-1--(x-lots!)--|-Riff-2-(x15)--|-Riff-3--|--Riff-2-(x4)--|
A:--------------------|---------------|---------|---------------|
D:--------------------|---------------|---------|---------------|

  *
G:--------------|--------|-------------|-------------------|
D:--Riff-2-(x3)-|-Riff-3-|-Riff-2-(x4)-|-------------------|
A:--------------|--------|-------------|---------------5\--|
D:--------------|--------|-------------|-3--0---(0)--------|

...back to tabulature