Voice of the Voiceless - Bass
jamarkus@home.com

Chorus
G------------------
D----5-------------
A--3---5-3-5-3-5-3-
E------------------

Pre-Verse
G-------------
D-------------
A-3-5-3-------
E-------3-5-3-

Verse
G--------------
D--------------
A--------------
E--3-5-0h2-0h3-

...back to tabulature