Vietnow

By: B Rogers (br12062@www.cedarnet.org)
    e  e  s  s  e  e  e  s  s  h      riff a1
G---------------r--------------r--|
D---------------e--------------e--|
A---------------s--------------s--|
E---2--2--5--5--t--2--2--5--5--t--|
                                                                        

    s  s  s  s  s  s  s  s  e  e  s  s  e  e  e  s  s  h   riff a2
G---------------------------------------r--------------r--|
D---------------------------------------e--------------e--|
A---------------------------------------s--------------s--|
E---0--2--2--0--2--2--2--2--2--2--5--5--t--2--2--5--5--t--|
                                                                        
Riff a1 once + Riff a2 3 times = Riff a

    s  s  s  s  s  s  s  s  h     riff b
G---------------------------r--|
D---------------------------e--|
A---------------------------s--|
E---0--2--2--0--2--2--2--2--t--|
                                                                        

    s  s  e  e  e  E  s e  e     riff c1
G-----------------------------|
D---4--4----------------------|
A-----------------------------|
E---------0--2--0--5--6p5--0--|
                                                                        

    s  s  e  e  e  E  s e  e     s  s  e  h    riff c2
G-----------------------------|--------r--r--|
D---4--4----------------------|--------e--e--|
A-----------------------------|--------s--s--|
E---------0--2--0--5--5p4--0--|--2--2--t--t--|
                                                                        
Riff c1 2 times + Riff c2 once = Riff c

    e Q  e Q  e Q  e Q     e Q  e Q  e Q  s  s  e  s  s  e     riff d
G-----------------------|-----------------------------------|
D-----------------------|-----------------------------------|
A---3/9-------3/9-------|--3/9-------3/9--9--7--9--9--7--9--|
E--------8\2-------8\2--|-------8\2-------------------------|
                                                                        

    e Q  e Q  e Q  e Q     e Q  e Q  e Q  s  s  e  s  s  e                
G-----------------------|-----------------------------------|
D-----------------------|-----------------------------------|
A---0/9-------3/9-------|--3/9-------3/9--9--7--9--9--7--9--|
E--------8\2-------8\2--|-------8\2-------------------------|
                                                                        

    e Q  e Q  e Q  e Q     e Q  e Q  e Q  s  s  e  s  s  e                
G-----------------------|-----------------------------------|
D-----------------------|-----------------------------------|
A---0/9-------3/9-------|--3/9-------3/9--9--7--9--9--7--9--|
E--------8\0-------8\0--|-------8\0-------------------------|
                                                                        


    e Q  e Q  e Q  e Q     e Q  e Q  e Q  s  s  e  s  s  e                
G-----------------------|-----------------------------------|
D-----------------------|-----------------------------------|
A---0/9-------3/9-------|--3/9-------3/9--9--7--9--9--7--9--|
E--------8\0-------8\0--|-------8\0-------------------------|
                                                                        

    s  E  s  E  s  E    riff e
G---r-----r-----r-----|
D---e-----e-----e-----|
A---s-----s-----s-----|
E---t--3--t--2--t--3--|
                                                                        

    s  E  s  E  s  E  s  E     riff f
G---r-----r-----r-----r-----|
D---e-----e-----e-----e-----|
A---s-----s-----s-----s-----|
E---t--2--t--3--t--2--t--3--|
                                                                        
Order-O-Riffs

riff a x 1
riff b x 20
riff c x 2
riff a x 1
riff b x 16
riff c x 2
rest 4 measures
riff d x 1
riff a x 1
riff e x 1
riff a x 1
riff b x 8
riff f x 4

Rhythm:
  w = whole note            W = dotted whole
  h = half note             H = dotted half
  q = quarter note          Q = dotted quarter
  e = eighth note           E = dotted eighth
  s = sixteenth note        S = dotted sixteenth
  t = 32nd note             T = dotted 32nd
  x = 64th note             X = dotted 64th
  ^ = triplet

...back to tabulature