Tire Me

By: B Rogers (br12062@www.cedarnet.org)
I've tried & tried & haven't been able to find out how Tim does 
that harmonic thing in riffs a, b, & g. I sounds like he's using 
a harmonizer and a whammy at the same time. He's got the whammy 
set at 1 octave I believe.                     -16-
I used this as a substitute for the harmonic . -16- This is the 
closest sound I could find on a bass without pedals. If anyone
finds out how to play that riff, please post it and let me know.

    s  s  s  s  s  s  s  e  s  s  s  s  s  s  s     riff a
G------------------------r-----------------------|
D------------------------e-----------------------|
A------------------------s--------------------3--|
D---3--0--0--3--0--0--3--t--3--0--0--3--4--5-----|
                                                                        

    s  s  s  s  s  s  E   s  s  s  s  s  s  s                           
G---------------------16-----------------------|
D---------------------16-----------------------|
A-------------------------------------------3--|
D---3--0--0--3--0--0------3--0--0--3--4--5-----|
                                                                        

    s  s  s  s  s  s  s  e  s  s  s  s  s  s  s     riff b
G------------------------r-----------------------|
D------------------------e-----------------------|
A------------------------s--------------------3--|
D---3--0--0--3--0--0--3--t--3--0--0--3--4--5-----|
                                                                        

    s  s  s  s  s  s  h   e                                             
G---------------------16--r--|
D---------------------16--e--|
A-------------------------s--|
D---3--0--0--3--0--0------t--|
                                                                        

    s  s  s  s  s  s  s  s  s  s  s  s  s  E     riff c
G---------------------------------------------|
D------3--------3--------3--------3-----------|
A---------5--------5--------5--------5--------|
D---0--------0--------0--------0--------0--3--|
                                                                        

    w     riff d
G------|
D------|
A------|
D---0--|
                                                                        

    e  e  H     riff e
G------r--r--|
D------e--e--|
A------s--s--|
D---0--t--t--|
                                                                        

    s  s  s  s  s  s  s  s  h     riff f
G------------------------r--r--|
D------------------------e--e--|
A------------------------s--s--|
D---3--0--0--3--0--0--3--t--t--|
                                                                        
 
   s  s  s  s  s  s  h   e    riff g
G--------------------16--r--|
D--------------------16--e--|
A------------------------s--|
D--3--0--0--3--0--0------t--|


    s  s  s  s  s  s  s  s  s  s  s  s  s  s  s  s     riff h
G---------------------------------------------------|
D---------------------------------------------------|
A---------------------------------------------------|
D---0--0--0--0--0--0--0--0--0--0--0--0--0--0--0--0--|
                                                                        

  H  s  E      riff i
G--r--------|
D--e--------|
A--s--------|
D--t--0--3--| 

Order-O-Riffs
riff a x 1
riff b x 1
riff a x 4
riff c x 4
riff d x 1
riff a x 2
riff e x 4
riff c x 4
riff f x 1
riff g x 1
riff f x 1
riff g x 1
riff f x 4
riff h x 4
rest 4 measures
riff a x 2
riff c x 2
riff i x 1 
riff c x 8


Rhythm:
  w = whole note            W = dotted whole
  h = half note             H = dotted half
  q = quarter note          Q = dotted quarter
  e = eighth note           E = dotted eighth
  s = sixteenth note        S = dotted sixteenth
  t = 32nd note             T = dotted 32nd
  x = 64th note             X = dotted 64th
  ^ = triplet

...back to tabulature