Testify - Bass
jamarkus@home.com

Intro
G-----------------------
D-----------------------
A-5-5-5-5-5-5-5-5-5-5-5-
E-----------------------

Chorus
G---------------------
D---------------------
A-5---------3-----5-3-
E---0-3-5-5---3-5-----

Verse
G------------------------------------
D--------------------------------3-5-
A--5-----3---0-5------3--5-----3-----
E----3-5----------3-5------3-5-------

Bridge
G-----------------
D-----------------
A--7~---3---5~----
E-----------------

...back to tabulature