No Shelter

No Shelter

Tabbed By: Derek ( Redemton11@aol.com)

Dropped D
w/Delay

Intro
G---8h10-----8h10----------| 
D---------0-0----------------| 
A-----------------------------| 
D-------------------0-0-----|

Pre-Verse
G---8h10-------8h10---8h10-8h10-8h10---|
D----------------------------------------------|
A------------------------------------------------| 
D------------------------------------------------|

Verse
G-8h10-8h10-8h10-8h10-8h10-8h10------------------|
D-0----0---0----0---0----0-----------| 
A-------------------------------0--|
D------------------------|

About 3 measures before the chorus, you stop. A Couple Beats Before the
chorus, play:

G12-12-12-11-10-9-7-|
D--------------------5-3-|
A---------------------------
D------------------------------

Chorus
G---8h10-------8h10---8h10-8h10-8h10---|
D------------------------------------------------|
A------------------------------------------------| 
E------------------------------------------------|

Pre-Verse 2
G-----------------|
D-00------33--|
A---553355-----| x1
E------------11-33-|

Play Verse

Bridge
G----------------------------------------------------------------|
D-00000000000000000000000---------3333---------3-------|
A-------------------------55553333----555555555-555-|
D-------------------------------------------------11113333------|

Outro
G--------------------------| Do x3 then
D------------3------------| an open E,
A---5-3-------5-3-5-----| and let ring.
D-------3-0---------3-5-|

...back to tabulature