Roll Right

By: B Rogers (br12062@www.cedarnet.org)
riff a - this riff is really fun to play if
you can get it to work for you.

    s  s  s  s  s  s  s  s  s  s  s  s  s  s  s  s     s  s  e  H       
G---------6-----4-----------------------------------|--------r--r--|
D------------0-----0--6-----5-----4-----2-----------|--------e--e--|
A---4--------------------0-----0-----0-----0--2--0--|--2--4--s--s--|
E------0--------------------------------------------|--------t--t--|
                                                                        
riff b - Timmy really messes around with this
riff a lot and I didn't bother to tab them all.

    q s  e  E  E  E                                
G--------------------|
D--------------------|
A---4/4--4--7--6--5--|
E--------------------|
                                                                        

    q  s  s  e  h     riff c
G------------r--r--|
D------------e--e--|
A---4--4--4--s--s--|
E------------t--t--|
                                                                        

    q  s  e  E  e  q     riff d
G------------------7--|
D---------------------|
A------5--7-----------|
E---0--------3--0-----|

Sometimes Timmy substitutes the 7 on the 
G string with a 5 on the A string for riff d.
                                                                        
Order-O-Riffs

riff a x 2
riff b x 16
riff a x 4
riff b x 16
riff a x 4
riff b x 8
riff c x 8
4 open E's
riff d x 16
play and hold open E


----------               
----5/8--- Slide Up      
----------               


Rhythm:
  w = whole note            W = dotted whole
  h = half note             H = dotted half
  q = quarter note          Q = dotted quarter
  e = eighth note           E = dotted eighth
  s = sixteenth note        S = dotted sixteenth
  t = 32nd note             T = dotted 32nd
  x = 64th note             X = dotted 64th
  ^ = triplet

...back to tabulature