Revolver

By: B Rogers (br12062@www.cedarnet.org)
Dropped-D

    s  s  s  s  e  e  e  s  s  s  E    riff a
G------------------------------------|
D---------------------------------3--|
A---3--4--5-----------3--5--3--5-----|
D------------0--3--5-----------------|
                                                                        

    s  s  s  s  e  e  e  s  s  s  E                               
G------------------------------------|
D------------------------------------|
A---3--4--5-----------3--5--2--5-----|
D------------0--3--5--------------0--|
                                                                        

    w        s   s   s   s   s   s   s       riff b1
G------------20--20--20--20--20--20--20--|
D----------------------------------------|
A----------------------------------------|
D---0------------------------------------|
                                                                        

    w        e   e   e      riff b2
G------------10--12--14--|
D------------------------|
A------------------------|
D---0--------------------|
riff b1 3 times and riff b2 once = riff b
                                                                        
    s  s  t  t  e  s  t  t  e  s  t  t  e  s  t  t  s   riff c  
G------------------------------------------------------|
D------------------------------------------------------|
A---5--------------------------------------------------|
D------0--3--5--0--0--3--5--0--0--3--5--0--0--3--5--0--|
                                                                        

    s  s  t  t  e  s  t  t  e  s  t  t  e  s  t  t  e   riff d  
G------------------------------------------------------|
D---------------3-----------3-----------3--------------|
A---5-----3--5--------3--5--------3--5-----------0--3--|
D------0-----------0-----------0-----------0--5--------|
                                                                        
Order-O-Riffs

riff a x 4
riff b x 3
riff c x 4
riff d x 4
riff a x 2
riff b x 3
riff c x 4
riff d x 8
rest 4 measures
riff a x 4
4 open d's
rest 2 measures
riff d x 10


Rhythm:
  w = whole note            W = dotted whole
  h = half note             H = dotted half
  q = quarter note          Q = dotted quarter
  e = eighth note           E = dotted eighth
  s = sixteenth note        S = dotted sixteenth
  t = 32nd note             T = dotted 32nd
  x = 64th note             X = dotted 64th
  ^ = triplet

...back to tabulature