Bulls on Parade
>From the album evil empire
Tabbed by: Brian DeNunzio
Tune all of your strings down a half step

intro
G------------------------------|
D--3-----3--3------3--3------|
A-------------------------------|       8X
E-----1----------1----------1--|

wah- wah pedal/ can use a bass wah, I do but Timmy C. doesnít
G---------x--x------------x--x--x--x--x--x------|
D---------x--x------------x--x--x--x--x--x------|                       X4
A---------x--x------------x--x--x--x--x--x------|
E--2--2--x--x--2--2-----x--x-x--x-x-x----|

Verse
G------1--3-1----------------------------|
D-2-3---------3-1-3--3-1-2-------------|
A-------------------------------------------|           X  4
E--------------------------------------------|

chorus
G----------------------------------------------------------|
D-------------------------------------------------------------|
A----------------------------------------------------------------|
X4
E-1-0h1--1-1---1-0h1-1-1-1-0h1-1-1-1-0h1-1-1-1-|

Play this during wah before the solo, itís hard to hear on the album but you
can really hear it live./ if you use wah donít use it here
G-----------------------------------------|
D--------------------------7--9--9-----7--7--|
A--2--2--x--x--2--2--9---------------------------9--------|
E-----------------------------------------|

G-----------------------------------|
D-----------------9--8--7-----------|
A--2--2--x--x--2-----------5--7--0--|
E-----------------------------------|

G---------------------------------------|
D---------------------------------------|
A--2--2--x--x--2--7h9--9--7h9--9--9--9--|
E---------------------------------------|

G-----------------14--16--16--16------------------|
D-------------------------------------------------|
A--2--2--x--x--2------------------12--14--14--14--|
E-------------------------------------------------|
h = hammer on
x = dead note or a thud

it sounds like itís close to perfect, if you have any corrections or
complaints e-mail me at mdenunzio@snet.net

...back to tabulature