Bulls On Parade

By: B Rogers (br12062@www.cedarnet.org)
Tune all of your strings down a half step for this one.

    s  E  s  s  s  E  s  s  s  E        riff a          
Gb-----------r-----------r---------|
Db--4-----4--e--4-----4--e--4------|
Ab-----------s-----------s---------|
Eb-----2-----t-----2-----t-----2---|
                                                                        

    e  e        e  e                          riff b                 
Gb---------------------------------------|
Db---------------------------------------|
Ab---------------------------------------|
Eb--2--2--x--x--2--2--x--x--x--x--x--x---|
                                                                        

    e  Q  q  s  s  s  s     h  s  E  s  E       riff c                 
Gb-----------------------|------------------|
Db-----------------------|------------------|
Ab--------0--2--0--------|------------------|
Eb--0--2-----------0--2--|--2--2--0--0--1---|
                      \____/                                                  

    s  s  s  q  Q  s  s  s  q  Q     s  s  s  q  Q  s  s  s  s  s  Q  
riff d  
Gb--0--------r--------------r-----|--0--------r-----------------------|
Db-----4-----e--------------e-----|-----4-----e-----------------------|
Ab-----------s--------------s-----|-----------s-----------------------|
Eb--------2--t--2--0--2--2--t--2--|--------2--t--2--2--2--2--2--0--2--|
                                                                        

    e  e        e  s  s  s  s  s  s  s  s    riff e     
Gb-----------------------------------------|
Db-----------------------7--9--9-----7--7--|
Ab--2--2--x--x--2--2--9-----------9--------|
Eb-----------------------------------------|
                                                                        

    e  e        e  s  s  s  s  s  E                                     
Gb-----------------------------------|
Db-----------------9--8--7-----------|
Ab--2--2--x--x--2-----------5--7--0--|
Eb-----------------------------------|
                                                                        

    e  e        e  s s  s  s s  s  s  s                                  
Gb---------------------------------------|
Db---------------------------------------|
Ab--2--2--x--x--2--7h9--9--7h9--9--9--9--|
Eb---------------------------------------|
                                                                        

    e  e        e  s   s   s   s   s   s   s   s                        
Gb-----------------14--16--16--16------------------|
Db-------------------------------------------------|
Ab--2--2--x--x--2------------------12--14--14--14--|
Eb-------------------------------------------------|
   
                                                                     
Order-O-Riffs

riff a x 8
rest 4 measures
riff b x 4
riff c x 4
riff d x 4
riff c x 4
riff d x 4
riff e x 1
riff c x 4
rest 4 measures
riff b x 8
riff a x 8

Rhythm:
  w = whole note            W = dotted whole
  h = half note             H = dotted half
  q = quarter note          Q = dotted quarter
  e = eighth note           E = dotted eighth
  s = sixteenth note        S = dotted sixteenth
  t = 32nd note             T = dotted 32nd
  x = 64th note             X = dotted 64th
  ^ = triplet


...back to tabulature