MARIA 

By: Tommi Nick  (RATM-king@jyrki.com)

verse: (riff 1.)

g------------------------------
d-------5-5-5-7-7-7------------
a-7-7-7-------------5-5-7-7-7-7
d------------------------------

pre-chorus: (riff 2.)
g--------------------------------
d-2-2-2-2-2-x-x-x-x-5-5-0-5-0-3-5
a--------------------------------
d--------------------------------

chorus: (riff 3a.) 
G-----------------------------------------------------
d-2-0-2-----0---0-------------------------------------
a---------2---2-------------0---------0---0-----2-0-2-
D-------------------7-5-7-2---2-5---2---5----2-------

variation: (riff 3b.)
g-----------------------------------------------------
d-2-0-2/5-2-0---0-------------------------------------
a-------------2-------------0---------0---0-----2-0-2-
D-------------------7-5-7-2---2-5---2---5----2-------
....................................................................


...back to tabulature