Maria - Bass
jamarkus@home.com

Verse
Use Octave
G-7-7-7-7-9-9-9-9-----------------
D-----------------7-7-7-7-9-9-9-9-
A---------------------------------
E---------------------------------

Chorus
G-------------------------------------
D-2-0-2-2-0-2---------0-2-0-2---------
A-------------5-5-5-5-----------------                        
E-----------------------------0-5-3-5-

...back to tabulature