Guerrilla Radio
By: jamarkus@home.com

Intro
G-------------------------------
D-------------------------------
A-------------------------------
E-2-2-2-2-2-2-2-2-2-2-2-2-2-2-2-

Pre-Verse/Chorus
G-------------------
D-------------------
A---------------0-2-
E-0-2-2-0-2-0-2-----

Verse
G----2-2--4-4--5-5---
D--------------------
A--------------------
E------------------0-

Verse Variation
G---2-0-0-3-3--4-4-5-5---
D------------------------
A------------------------
E---------------------0--

Outro
G----------------------
D----------------------
A----------------------
E--0-2-0h13/--0-2-0h13-

...back to tabulature