Born as Ghosts - Bass
jamarkus@home.com

Verse
G----------------
D-0-----0--5/4-0-
A----------------
E---0-0----------

Chorus
G-------------
D-------------
A-----------5-
E-0-0---0-0---

Bridge/Solo
G------------------
D------------------
A-6/10--6/10--6/10-
E------------------

...back to tabulature