Rage Against the Machine
Ghost of Tom Joad
by Stephen Schworer
In Dropped D

>  means to slide down

Riff 1
G--------------------------------------------------
D-------------------------------------------------
A-------5--3--0----------------3------0--3--
D---0-------------5--3--0---------5---------

Riff 2

G-------------------------------------------------------
D--------------------------------------------------------
A---5>------3----------0-----3---------------------------
D-----------------5-------------------------------------

Riff 3

G-----------------------------------------------------------------------

D-----------------------------------------------------------------------

A---5>---5>----5>-----3------------0-----3------------------------
D------------------------------5-----------------------------------------



Song Order:

Riff 1.... 4 times then hold open low D
Riff 2.... 16 times
Riff 1.... 4 times then hold open low D
Riff 3.... 4 times
Riff 2.... 16 times
Riff 1.... 4 times then hold open low D
Riff 3.... 4 times
Riff 2.... 8 times
PALM MUTE LOW D until
Riff 1.... 8 times then hold open low D

...back to tabulature