Fuck Tha Police
redemton11@aol.com

Intro/Chorus
G----------------------------------------|
D----------------------------------------|
A----------------------------------------|
E--0-4-----------0-4-----------0-4---| x2

Pre-Verse

G--9--7--6--4--3-2-0---
D----------------------------
A----------------------------
E----------------------------

Verse
G----------------------------------------|
D----------------------------------------|
A----------------------------------------|
E--0-4-----------0-4-----------0-4---| x3

Play Chorus (Intro), then Pre-Verse

2nd Verse

G-------------------------------------------------|
D--------7----7--7-7-5------7----7--7-7-6--|
A--------7----7--7-7-5------7----7--7-7-5--|
E--0-4------------------0-4--------------------|

...back to tabulature