Fistful Of Steel

By: R.Allen Canterbury (acanterb@mail.vt.edu)
Guitar intro
					     ? times
|--------------||-------------------------|
|---|=====|----||*-----------------------*|
|--------------||*-----------------------*|
|--------------||--3-1-2-X-X-3-1-2-X-15\\-|

Verse
	    ? times             little tail piece.
|-----------------|    --------------------------
|*---------------*|    --------------------------
|*-----/9--------*|    ------/9-0-9-7------------
|--2-2----X-5-7-8-|    --2-2----------9--9-7-5---

Chorus
|-------------------------|
|*-----------------------*|
|*-----------------------*|
|--3-1-2-X-X-3-1-2-X-15\\-|

Interlude                                         2x
|~~~~~~~~~~~~~~~~~~~~~~~~~~~~~~~~~~~~~~~~~~~~~~~~~~~~|
			 3x
|-------------------------|--------------------------|
|-------------------------|--------------------------|
|----------------0--0-0-2-|-----------9-7------------|
|--3-1-2-2-0-2-2----------|-3-1-2-2-0-----9--9-7-5---|

Bass Rests...
					 ? times
|-----------------------------------------|
|*---------------------------------------*|
|*-------------------0-9-8-7-0-9-8-7-----*|
|--0--2-2--5--(5)-------------------------|

...back to tabulature