Without A Face

By: B Rogers (br12062@www.cedarnet.org)
    E  e  e  h  s  s       riff a   
G---------------------|
D---------------------|
A---7--------8--7--5--|
E------5--6--8--------|
                                                                        

    E  e  e  h  s  s      alternate riff a
G---------------------|
D---2--------3--2--0--|
A------0--1--3--------|
E---------------------|
                                                                        

    q  e  e  e  e  e  e     w       riff b   
G---r--r-----------------|-----|
D---e--e-----------------|-----|
A---s--s-----------------|-----|
E---t--t--1--1--1--1--1--|--3--|
                                                                        

    s  s  s  s  s  s  s  s  s  s  s  s  s  s  s  s    riff c  
G---------------------------------------------------|
D---------------------------------------------------|
A---------------------------------------------------|
E---3--3--3--3--3--3--3--3--3--3--3--3--3--3--3--3--|
                                                                        

    s  s  s  s  s  s  s  s  s  s  s  s  s  s  s  s     e  e  H    riff d
G---------------------------------------------------|--------r--|
D---------------------------------------------------|--------e--|
A---------------------------------------------------|--------s--|
E---3--1--3--1--3--1--3--1--3--1--3--1--3--1--3--1--|--1--3--t--|
                                                                         

    q  q  q  q      riff e
G---------------|
D---------------|
A---------------|
E---3--1--3--1--|
                                                                        
Order-O-Riffs

riff a x 6
riff b x 1
rest 2 measures
riff c x 1
riff d x 5
rest 1 measure
riff a x 7
riff b x 1
rest 1 measure
riff c x 2
riff d x 4
riff a x 6
riff e x 20
you can figure out the last 3 notes I hope 


Rhythm:
  w = whole note            W = dotted whole
  h = half note             H = dotted half
  q = quarter note          Q = dotted quarter
  e = eighth note           E = dotted eighth
  s = sixteenth note        S = dotted sixteenth
  t = 32nd note             T = dotted 32nd
  x = 64th note             X = dotted 64th
  ^ = triplet



...back to tabulature