Down Rodeo

By: B Rogers (br12062@www.cedarnet.org)
    s  s  s  s  s  s  s  s  s  s  s  s  s  s  s  s    riff a1
G---------------------------------------------------|
D---------------------------------------------------|
A---4--4--4--4--4--4--4--4--4--4--4--4--4--4--4--4--|
E---------------------------------------------------|
                                                                        

    s  s  s  s  s  s  s  s  s  s  s  s  s  E   riff a2
G---------------------------------------r-----|
D---------------------------------------e-----|
A---7--7--7--7--7--7--7--7--7--7--7--7--s-----|
E---------------------------------------t--0--|
                                                                         
riff a1 3 times + riff a2 once + riff a

    s  s  q  s  s  s  s  s  s  s  s  e     s  s  e  H    riff b
G---------r-----------------------------|--------r--r--|
D---------e-----------------------------|--------e--e--|
A---------s-----------------------------|--------s--s--|
E---0--2--t--2--0--0--2--0--2--3--2--0--|--0--2--t--t--|
                                                                        

    e  e           e  e             riff c
G---------------------------------|
D---------------------------------|
A---------------------------------|
E---0--2--x--x--x--0--2--x--x--x--|
                                                                        

   e  e           e  e  e  e      riff d  
G-----------------------r-----|
A-----------------------e--5--|
D-----------------------s-----|
E--0--2--x--x--x--0--2--t-----|


    s  s   s   s   s   s   s   s   s  
G---r--12--12--12--12--12--12--12--12--|
D---e----------------------------------|
A---s----------------------------------|
E---t----------------------------------|
                                                                        

    e  e  q  s  s   s   s   s   s   s   s   riff e
G---------r--r--12--12--12--12--12--12--12--|
D---------e--e------------------------------|
A---------s--s------------------------------|
E---0--2--t--t------------------------------|
                                                                        

    e  e  q  s  s   s   s   s   s   s   s                               
G---r-----r--r--12--12--12--12--12--12--12--|
D---e-----e--e------------------------------|
A---s-----s--s------------------------------|
E---t--2--t--t------------------------------|
                                                                        

    e  e  q  s  s   s   s   s   s   s   s                               
G---------r--r--12--12--12--12--12--12--12--|
D---------e--e------------------------------|
A---------s--s------------------------------|
E---0--2--t--t------------------------------|
                                                                        

    e  e  e  e  s  s   s   s   s   s   s   s                            
G---r-----r-----r--12--12--12--12--12--12--12--|
D---e-----e-----e------------------------------|
A---s-----s-----s------------------------------|
E---t--0--t--2--t------------------------------|
                                                                        
riff f
    e  s  s  e  s  s  s  s  e  e  s  s     e  s  s  e  s  s  e  e  s  E 
G---------------------------------------|--------------------------r-----|
D---------------------------------------|--------------------------e-----|
A---------------------------------------|--------------------------s-----|
E---3--3--3--3--3--3--3--3--3--3--3--3--|--3--3--3--3--3--3--3--3--t--0--|
                                                                                                                                                

    e  e  e  s  s  s  s  e  e  s  s    riff g1
G------------------------------------|
D------------------------------------|
A------------------------------------|
E---0--0--0--0--0--0--0--0--0--0--0--|
  
                                                                      
    s  s  s  s  s  s  s  s  s  s  s  s  s  s  s  s   riff g2
G---------------------------------------------------|
D---------------------------------------------------|
A---5--5--5--5--5--5--5--5--5--5--5--5--5--5--5--5--|
E---------------------------------------------------|

riff g1 + riff g2 = riff g

    w     Q  H..   w     Q  H..   w     Q  H..   w     Q  H..   w    riff h
G------|--------|-----|--------|-----|--------|-----|--------|-----|
D------|--------|-----|-----3--|-----|--------|-----|--------|-----|
A------|--5--3--|-----|--5-----|-----|--5--3--|-----|--5--3--|-----|
E---0--|--------|--0--|--------|--0--|--------|--0--|--------|--0--|
                                                                        
Order-O-Riffs

riff a x 1
riff b x 4
riff c x 8
riff d x 1 
riff e x 3
riff f x 1
riff b x 4
riff c x 8
riff d x 1
riff e x 4
riff f x 1
riff b x 4
riff c x 9
riff g2 x 3
riff g x 7
riff h x 1


     ----------               
     -----x---- Dead          
     ---------- Note          
    

Rhythm:
  w = whole note            W = dotted whole
  h = half note             H = dotted half      H.. = Double dotted 
half  
  q = quarter note          Q = dotted quarter
  e = eighth note           E = dotted eighth
  s = sixteenth note        S = dotted sixteenth
  t = 32nd note             T = dotted 32nd
  x = 64th note             X = dotted 64th
  ^ = triplet

...back to tabulature