Snakecharmer

By: B Rogers (br12062@www.cedarnet.org)
Dropped-D.

    q  q  q  q     riff a
G------------r--|
D------------e--|
A------5--8--s--|
D---0--------t--|
                                                                        
    q  E  s  e  e  e  e     q  q  e  e  e  e     riff b
G------------------------|--------------------|
D------------------------|--------------------|
A------5-----3--5--3--5--|-----5-----5--4--3--|
D---0-----0--------------|--0-----0-----------|

 
    e  e  e  e  e  e  q    riff c 
G---------------------r--|
D---------------------e--|
A---5--5--5--5--5--3--s--|
D---------------------t--|
                                                                        
   
    e  e  e  e  e  e  q     riff d
G---------------------r--|
D---------------------e--|
A---------------------s--|
D---5--5--5--5--5--3--t--|


    q  q  q  q     riff e1
G---------------|
D---------------|
A---------------|
D---0--12\0--12\|   


    q  q  q  q     riff e2
G---------------|
D---------------|
A---------------|
D---3--12\1--12\|
                                                                        
riff e1 7 times + riff e2 once = riff e

    q  q  e  e  q     e  e  q  e  e  q      riff f1
G------------------|--------------------|
D------------------|--------------------|
A------------------|-----------5--3-----|
D---0--0--5--3--0--|--7--5--0--------3--|


   q  Q  Q      e  Q  e  Q     w     riff f2
G-----------|---------------|-----|
D-----------|---------------|-----|
A-----5--5--|---5--3--------|-----|
D--0--------|---------5--3--|--0--|
                                                                        
riff f1 3 times + riff f2 once = riff f

    q  E  s  e  e  e  e     q  q  e  e  e  e    riff g (Solo) 
G------------------------|--------------------|
D------------------------|--------------------|
A------5-----3--5--3--5--|-----5-----5--4--3--|
D---0-----0--------------|--0-----0-----------|


    q  E  s  e  e  e  e     q  q  e  s  s  s  s  s  s                   
G------------------------|------------------------------|
D------------------------|------------------------------|
A------5-----3--5--3--5--|-----5-----5--6--7--8--9--10--|
D---0-----0--------------|--0-----0---------------------|
                                                                        

    q  E  s  e  e  e  e     q  q  e  e  e  e     q  E  s  e  e  e  e  
G------------------------|--------------------|-----------------------|
D------------------------|--------------------|-----------------------|
A------5-----3--5--3--5--|-----5--------------|-----5-----3--5--3--5--|
D---0-----0--------------|--0-----0--5--4--3--|--0-----0--------------|
                                                                        

    q  q  e  e  e  e     q  H                                        
G---------------------|-----r--|
D---------------------|-----e--|
A------5-----5--4--3--|-----s--|
D---0-----0-----------|--3--t--|
                                                                        
Order-O-Riffs

riff a x 16
riff b x 4
riff c x 5
riff d x 1
riff c x 2
riff e x 1
riff f x 1
riff g x 1
riff a x 16
riff b x 4
riff c x 8
riff e x 1
riff f x 1

Rhythm:
  w = whole note            W = dotted whole
  h = half note             H = dotted half
  q = quarter note          Q = dotted quarter
  e = eighth note           E = dotted eighth
  s = sixteenth note        S = dotted sixteenth
  t = 32nd note             T = dotted 32nd
  x = 64th note             X = dotted 64th
  ^ = triplet

...back to tabulature