Calm Like A Bomb - Bass
jamarkus@home.com

Intro
x2
G-------2--------------------
D-0-2-4---4-2-1-0------4-5-6-
A-----------------4-5-6------
E----------------------------

Verse riff 1
Wah/Distortion
(play each note with a slow bend)

G-----------------------------------------
D-----------------------------------------
A-----------------------------------------
E-5~~-x-x-x-7~~-x-x-x-5~~-x-x-x-7~~-x-x-x-

Verse Riff 2
Wah/Distortion
(play when Zack goes into the "uh-huh"s)

G----------------------------
D----------------------------
A-2-0--2-0------2-0-2-0------
E----3----3-5~~----3---3-7~~-

Pre Chorus
(whatcha see, etc...)
G---------------------------------------------
D---------------------------------------------
A--0-2----------------0-2-0-2--0--2-2-2-2-4-5-
E---------------------------------------------

Chorus
G-------------------------------------------------
D-------------------------------------------------
A-0-2-0-4-2-0-2-x-x-4-2--0-2--2-4-0-2-4-2---------
E-----------------------------------------5-3---0-

1st  part of solo
G--7-9-7-9-7-9-7------7-9-7-9-7-9------
D----------------9-8-7-----------9-8-7-
A--------------------------------------
E--------------------------------------

2nd Part of Solo:
Play Verse

...back to tabulature