Born Of A Broken Man - Bass
jamarkus@home.com

Chorus
G---0----------------------------------
D--------------------------------------
A--------3---------------------3-------
D-0---3-0----0--0-3-x-x-x--3-0--0-3-0--

Verse
There really isn't a verse bass part, but it sounds like
Tim hits an open "E" and lets it feedback, but it is real
quiet.

Bridge
G-----------------
D-----------------
A-----------------
E-0-0-0-0-0-0-0-0-

Pre-Outro
G-----------------------
D-----------------------
A-5-5-5-5-5-5-5-5-5-5-5-
E-----------------------

...back to tabulature