Year Of Tha Boomerang

By: B Rogers (br12062@www.cedarnet.org)
Dropped-D this one.

    q  s E  E  s  E  s       riff a    
G-----------------r-----|
D------0h2--------e-----|
A-----------------s-----|
D---2-------0--2--t--0--|
                                                                        

    E  E  e  e  E  E  e  e         riff b     
G---------r-----------r-----|
D---------e-----------e-----|
A---------s-----------s-----|
D---4--4--t--2--4--4--t--2--|
                                                                        

    E  e  s  e  e  E  e  s  e  e        riff c     
G---------------------------------|
D---------------------------------|
A------------0--------------0-----|
D---4--4--4-----2--4--4--4-----2--|

The open A on riffs c & d can be substituted
with a 7 on the lower D string if you 
like.                                                                       

    E  e  s  e  e  s  s  s  e  s  e  e                                  
G---------------------------------------|
D---------------------------------------|
A------------0--------------------0-----|
D---4--4--4-----2--4--4--4--2--4-----2--|
                                                                        
    s  s  s  e  s  e  e  s  s  s  e  s  e  e       riff d   
G---------------------------------------------|
D---------------------------------------------|
A------------------0--------------------0-----|
D---4--4--4--2--4-----2--4--4--4--2--4-----2--|

Order-O-Riffs
riff a x 12
rest 2 measures
riff a x 12
riff b x 2
riff c x 4
rest 2 measures
riff a x 12
play the first note of riff a and rest the remainder of the measure
riff a x 12
riff b x 2
riff c x 4
riff d x 4
rest 2 measures
riff d x 6
play and hold the fist note of riff d

----------                
----0h2--- Hammeron       
----------              


Rhythm:
  w = whole note            W = dotted whole
  h = half note             H = dotted half
  q = quarter note          Q = dotted quarter
  e = eighth note           E = dotted eighth
  s = sixteenth note        S = dotted sixteenth
  t = 32nd note             T = dotted 32nd
  x = 64th note             X = dotted 64th
  ^ = triplet

...back to tabulature