Bombtrack

By: R. Allen Canterbury (acanterb@mail.vt.edu)
I think this song may use light distortion.  Not sure.  Experiment for 
yourself.  This song seems to be played in standard tuning. (EADG)


   Intro
G:-------------------------------0------------------------------------------|
D:*----2-0---0---------2-0---0-2----------2-0---0---------2-0---0-----------|
A:*--------2---2-0---------2------------------2---2-0---------2---2---------|
E:---0-------------3-0-----------------0--------------3-0-----------3-2-0---|


G:----------------------------0h2p0h2p0--------------------------------------|
D:--2-0---0---------2-0---0-2---------------2-0---0---------2-0---0---------*|
A:------2---2-0---------2-----------------------2---2-0---------2---2-------*|
E:--------------3-0----------------------0--------------3-0-----------3-2-0--|

                                                                1,2,3.
                                                               |~~~~~~~~~~
     FIG 1. ___________________________________________________________|
G:------------------------------------------------------------------------|
D:*------------4----------------4---2--------------4------------6--5--4--*|
A:*-------------------------------------------------------------4--3--2--*|
E:----0----2-------0--2--0--2------------0----2--------0--2--0------------|


     4.        
   |~~~~~~~~~  
G:------------|
D:--6----(6)--|
A:--4----(4)--|
E:------------|


                                                                     (x3)
   FIG 2._______________________________________________________________
G:------------------------------------------------------------------------|
D:*---------------------------------------------------4--2---------------*|
A:*---------------------------------------------------------4--3--2--0---*|
E:---2--2--0---2-2--2--0--5b(6)r(5)---2--2--0----2-0----------------------|

G:-------------------------------------------------------------|
D:-------------------------------------------------------------|
A:-------------------------------------------------------------|
E:--2--2--0---2-2--2--0--5b(6)r(5)---2--2--0----2-2----rest----|


G:----------------|-----------------|-----------------|------------------|
D:---Fig-2-(x4)---|---Fig-1-(x4)----|---Fig-2--(x4)---|--Fig-1-(x3)------|
A:----------------|--play-as-shown--|-----------------|-skip-4th-ending--|
E:----------------|------above------|-----------------|------------------|

G:-----------------------------------------------------------------------|
D:-----------------------------------------------------------------------|
A:---------------------------------------------------/7-7-7-7-7-7-7-7-\--|
E:--0-0-0-0-0-0-0-0-0-0-0-0-0-0-0-0-0-0-0-0-0-0-0-0-0--------------------|
                                                                
                                                                (4x)
G:--------------------------------------------------------------------|
D:*------------------------------------------------------------------*|
A:*----------------------------------------------------4-0-3-0-2-0---*|
E:--2-0-2-0--5---2-0-2-0-2-------2-0-2-0--5---2-0-2-0-----------------|


G:------------|-----------||
D:-Fig-1-(x4)-|--4--3--2--||
A:------------|--2--1--0--||
E:------------|-----------||

...back to tabulature