Ashes in the Fall - Bass
jamarkus@home.com

Verse/Intro/Main Riff
G--7-9-9--7-9-9---
D---------------9-
A-----------------
E-----------------

Chorus
G----------------
D---slight-------
A---feedback...--
E--0~~~~~--------

Outro
Delay, let fade
G------------------
D------------------
A------------------
E-5~-------5~------

...back to tabulature